  0
SECTION
  2
HEADER
  9
$ACADVER
  1
AC1014
  9
$ACADMAINTVER
 70
     9
  9
$DWGCODEPAGE
  3
ANSI_1252
  9
$INSBASE
 10
0.0
 20
0.0
 30
0.0
  9
$EXTMIN
 10
-141.0338
 20
-141.0434
 30
0.0
  9
$EXTMAX
 10
141.0338
 20
141.0434
 30
0.0
  9
$LIMMIN
 10
0.0
 20
0.0
  9
$LIMMAX
 10
12.0
 20
9.0
  9
$ORTHOMODE
 70
     0
  9
$REGENMODE
 70
     1
  9
$FILLMODE
 70
     1
  9
$QTEXTMODE
 70
     0
  9
$MIRRTEXT
 70
     1
  9
$DRAGMODE
 70
     2
  9
$LTSCALE
 40
1.0
  9
$OSMODE
 70
    37
  9
$ATTMODE
 70
     1
  9
$TEXTSIZE
 40
0.2
  9
$TRACEWID
 40
0.05
  9
$TEXTSTYLE
  7
STANDARD
  9
$CLAYER
  8
0
  9
$CELTYPE
  6
BYLAYER
  9
$CECOLOR
 62
   256
  9
$CELTSCALE
 40
1.0
  9
$DELOBJ
 70
     1
  9
$DISPSILH
 70
     0
  9
$DIMSCALE
 40
1.0
  9
$DIMASZ
 40
0.18
  9
$DIMEXO
 40
0.0625
  9
$DIMDLI
 40
0.38
  9
$DIMRND
 40
0.0
  9
$DIMDLE
 40
0.0
  9
$DIMEXE
 40
0.18
  9
$DIMTP
 40
0.0
  9
$DIMTM
 40
0.0
  9
$DIMTXT
 40
0.18
  9
$DIMCEN
 40
0.09
  9
$DIMTSZ
 40
0.0
  9
$DIMTOL
 70
     0
  9
$DIMLIM
 70
     0
  9
$DIMTIH
 70
     1
  9
$DIMTOH
 70
     1
  9
$DIMSE1
 70
     0
  9
$DIMSE2
 70
     0
  9
$DIMTAD
 70
     0
  9
$DIMZIN
 70
     0
  9
$DIMBLK
  1

  9
$DIMASO
 70
     1
  9
$DIMSHO
 70
     1
  9
$DIMPOST
  1

  9
$DIMAPOST
  1

  9
$DIMALT
 70
     0
  9
$DIMALTD
 70
     2
  9
$DIMALTF
 40
25.4
  9
$DIMLFAC
 40
1.0
  9
$DIMTOFL
 70
     0
  9
$DIMTVP
 40
0.0
  9
$DIMTIX
 70
     0
  9
$DIMSOXD
 70
     0
  9
$DIMSAH
 70
     0
  9
$DIMBLK1
  1

  9
$DIMBLK2
  1

  9
$DIMSTYLE
  2
STANDARD
  9
$DIMCLRD
 70
     0
  9
$DIMCLRE
 70
     0
  9
$DIMCLRT
 70
     0
  9
$DIMTFAC
 40
1.0
  9
$DIMGAP
 40
0.09
  9
$DIMJUST
 70
     0
  9
$DIMSD1
 70
     0
  9
$DIMSD2
 70
     0
  9
$DIMTOLJ
 70
     1
  9
$DIMTZIN
 70
     0
  9
$DIMALTZ
 70
     0
  9
$DIMALTTZ
 70
     0
  9
$DIMFIT
 70
     3
  9
$DIMUPT
 70
     0
  9
$DIMUNIT
 70
     2
  9
$DIMDEC
 70
     4
  9
$DIMTDEC
 70
     4
  9
$DIMALTU
 70
     2
  9
$DIMALTTD
 70
     2
  9
$DIMTXSTY
  7
STANDARD
  9
$DIMAUNIT
 70
     0
  9
$LUNITS
 70
     2
  9
$LUPREC
 70
     4
  9
$SKETCHINC
 40
0.1
  9
$FILLETRAD
 40
0.5
  9
$AUNITS
 70
     0
  9
$AUPREC
 70
     0
  9
$MENU
  1
.
  9
$ELEVATION
 40
0.0
  9
$PELEVATION
 40
0.0
  9
$THICKNESS
 40
0.0
  9
$LIMCHECK
 70
     0
  9
$CHAMFERA
 40
0.0
  9
$CHAMFERB
 40
0.0
  9
$CHAMFERC
 40
0.0
  9
$CHAMFERD
 40
0.0
  9
$SKPOLY
 70
     0
  9
$TDCREATE
 40
2457645.388919537
  9
$TDUPDATE
 40
2457645.388922963
  9
$TDINDWG
 40
0.0000000116
  9
$TDUSRTIMER
 40
0.0000000116
  9
$USRTIMER
 70
     1
  9
$ANGBASE
 50
0.0
  9
$ANGDIR
 70
     0
  9
$PDMODE
 70
     0
  9
$PDSIZE
 40
0.0
  9
$PLINEWID
 40
0.0
  9
$COORDS
 70
     1
  9
$SPLFRAME
 70
     0
  9
$SPLINETYPE
 70
     6
  9
$SPLINESEGS
 70
     8
  9
$ATTDIA
 70
     0
  9
$ATTREQ
 70
     1
  9
$HANDLING
 70
     1
  9
$HANDSEED
  5
137
  9
$SURFTAB1
 70
     6
  9
$SURFTAB2
 70
     6
  9
$SURFTYPE
 70
     6
  9
$SURFU
 70
     6
  9
$SURFV
 70
     6
  9
$UCSNAME
  2

  9
$UCSORG
 10
0.0
 20
0.0
 30
0.0
  9
$UCSXDIR
 10
1.0
 20
0.0
 30
0.0
  9
$UCSYDIR
 10
0.0
 20
1.0
 30
0.0
  9
$PUCSNAME
  2

  9
$PUCSORG
 10
0.0
 20
0.0
 30
0.0
  9
$PUCSXDIR
 10
1.0
 20
0.0
 30
0.0
  9
$PUCSYDIR
 10
0.0
 20
1.0
 30
0.0
  9
$USERI1
 70
     0
  9
$USERI2
 70
     0
  9
$USERI3
 70
     0
  9
$USERI4
 70
     0
  9
$USERI5
 70
     0
  9
$USERR1
 40
0.0
  9
$USERR2
 40
0.0
  9
$USERR3
 40
0.0
  9
$USERR4
 40
0.0
  9
$USERR5
 40
0.0
  9
$WORLDVIEW
 70
     1
  9
$SHADEDGE
 70
     3
  9
$SHADEDIF
 70
    70
  9
$TILEMODE
 70
     1
  9
$MAXACTVP
 70
    64
  9
$PINSBASE
 10
0.0
 20
0.0
 30
0.0
  9
$PLIMCHECK
 70
     0
  9
$PEXTMIN
 10
1.000000000000000E+20
 20
1.000000000000000E+20
 30
1.000000000000000E+20
  9
$PEXTMAX
 10
-1.000000000000000E+20
 20
-1.000000000000000E+20
 30
-1.000000000000000E+20
  9
$PLIMMIN
 10
0.0
 20
0.0
  9
$PLIMMAX
 10
12.0
 20
9.0
  9
$UNITMODE
 70
     0
  9
$VISRETAIN
 70
     1
  9
$PLINEGEN
 70
     0
  9
$PSLTSCALE
 70
     1
  9
$TREEDEPTH
 70
  3020
  9
$PICKSTYLE
 70
     1
  9
$CMLSTYLE
  2
STANDARD
  9
$CMLJUST
 70
     0
  9
$CMLSCALE
 40
1.0
  9
$PROXYGRAPHICS
 70
     1
  9
$MEASUREMENT
 70
     0
  0
ENDSEC
  0
SECTION
  2
CLASSES
  0
CLASS
  1
ACDBDICTIONARYWDFLT
  2
AcDbDictionaryWithDefault
  3
ObjectDBX Classes
 90
        0
280
     0
281
     0
  0
CLASS
  1
VISUALSTYLE
  2
AcDbVisualStyle
  3
ObjectDBX Classes
 90
     4095
280
     0
281
     0
  0
CLASS
  1
MATERIAL
  2
AcDbMaterial
  3
ObjectDBX Classes
 90
     1153
280
     0
281
     0
  0
CLASS
  1
SCALE
  2
AcDbScale
  3
ObjectDBX Classes
 90
     1153
280
     0
281
     0
  0
CLASS
  1
TABLESTYLE
  2
AcDbTableStyle
  3
ObjectDBX Classes
 90
     4095
280
     0
281
     0
  0
CLASS
  1
MLEADERSTYLE
  2
AcDbMLeaderStyle
  3
ACDB_MLEADERSTYLE_CLASS
 90
     4095
280
     0
281
     0
  0
CLASS
  1
SUN
  2
AcDbSun
  3
SCENEOE
 90
     1153
280
     0
281
     0
  0
CLASS
  1
DICTIONARYVAR
  2
AcDbDictionaryVar
  3
ObjectDBX Classes
 90
        0
280
     0
281
     0
  0
CLASS
  1
XRECORD
  2
AcDbXrecord
  3
ObjectDBX Classes
 90
        0
280
     0
281
     0
  0
CLASS
  1
LWPOLYLINE
  2
AcDbPolyline
  3
ObjectDBX Classes
 90
        0
280
     0
281
     1
  0
CLASS
  1
HATCH
  2
AcDbHatch
  3
ObjectDBX Classes
 90
        0
280
     0
281
     1
  0
CLASS
  1
ACDBPLACEHOLDER
  2
AcDbPlaceHolder
  3
ObjectDBX Classes
 90
        0
280
     0
281
     0
  0
CLASS
  1
LAYOUT
  2
AcDbLayout
  3
ObjectDBX Classes
 90
        0
280
     0
281
     0
  0
ENDSEC
  0
SECTION
  2
TABLES
  0
TABLE
  2
VPORT
  5
8
102
{ACAD_XDICTIONARY
360
12C
102
}
330
0
100
AcDbSymbolTable
 70
     1
  0
VPORT
  5
29
330
8
100
AcDbSymbolTableRecord
100
AcDbViewportTableRecord
  2
*ACTIVE
 70
     0
 10
0.0
 20
0.0
 11
1.0
 21
1.0
 12
10.42990654205607
 22
4.5
 13
0.0
 23
0.0
 14
0.5
 24
0.5
 15
0.5
 25
0.5
 16
0.0
 26
0.0
 36
1.0
 17
0.0
 27
0.0
 37
0.0
 40
9.0
 41
1.972972972850329
 42
50.0
 43
0.0
 44
0.0
 50
0.0
 51
0.0
 71
     0
 72
   100
 73
     1
 74
     3
 75
     0
 76
     0
 77
     0
 78
     0
  0
ENDTAB
  0
TABLE
  2
LTYPE
  5
5
330
0
100
AcDbSymbolTable
 70
     1
  0
LTYPE
  5
14
330
5
100
AcDbSymbolTableRecord
100
AcDbLinetypeTableRecord
  2
BYBLOCK
 70
     0
  3

 72
    65
 73
     0
 40
0.0
  0
LTYPE
  5
15
330
5
100
AcDbSymbolTableRecord
100
AcDbLinetypeTableRecord
  2
BYLAYER
 70
     0
  3

 72
    65
 73
     0
 40
0.0
  0
LTYPE
  5
16
330
5
100
AcDbSymbolTableRecord
100
AcDbLinetypeTableRecord
  2
CONTINUOUS
 70
     0
  3
Solid line
 72
    65
 73
     0
 40
0.0
  0
ENDTAB
  0
TABLE
  2
LAYER
  5
2
330
0
100
AcDbSymbolTable
 70
     1
  0
LAYER
  5
10
330
2
100
AcDbSymbolTableRecord
100
AcDbLayerTableRecord
  2
0
 70
     0
 62
     7
  6
CONTINUOUS
  0
ENDTAB
  0
TABLE
  2
STYLE
  5
3
330
0
100
AcDbSymbolTable
 70
     1
  0
STYLE
  5
11
330
3
100
AcDbSymbolTableRecord
100
AcDbTextStyleTableRecord
  2
STANDARD
 70
     0
 40
0.0
 41
1.0
 50
0.0
 71
     0
 42
0.2
  3
txt
  4

  0
ENDTAB
  0
TABLE
  2
VIEW
  5
6
330
0
100
AcDbSymbolTable
 70
     0
  0
ENDTAB
  0
TABLE
  2
UCS
  5
7
330
0
100
AcDbSymbolTable
 70
     0
  0
ENDTAB
  0
TABLE
  2
APPID
  5
9
330
0
100
AcDbSymbolTable
 70
     3
  0
APPID
  5
12
330
9
100
AcDbSymbolTableRecord
100
AcDbRegAppTableRecord
  2
ACAD
 70
     0
  0
APPID
  5
6E
330
9
100
AcDbSymbolTableRecord
100
AcDbRegAppTableRecord
  2
ODA
 70
     0
  0
APPID
  5
136
330
9
100
AcDbSymbolTableRecord
100
AcDbRegAppTableRecord
  2
ACAD_MLEADERVER
 70
     0
  0
ENDTAB
  0
TABLE
  2
DIMSTYLE
  5
A
330
0
100
AcDbSymbolTable
 70
     1
  0
DIMSTYLE
105
27
330
A
100
AcDbSymbolTableRecord
100
AcDbDimStyleTableRecord
  2
STANDARD
 70
     0
  3

  4

  5

  6

  7

 40
1.0
 41
0.18
 42
0.0625
 43
0.38
 44
0.18
 45
0.0
 46
0.0
 47
0.0
 48
0.0
140
0.18
141
0.09
142
0.0
143
25.4
144
1.0
145
0.0
146
1.0
147
0.09
 71
     0
 72
     0
 73
     1
 74
     1
 75
     0
 76
     0
 77
     0
 78
     0
170
     0
171
     2
172
     0
173
     0
174
     0
175
     0
176
     0
177
     0
178
     0
270
     2
271
     4
272
     4
273
     2
274
     2
340
11
275
     0
280
     0
281
     0
282
     0
283
     1
284
     0
285
     0
286
     0
287
     3
288
     0
  0
ENDTAB
  0
TABLE
  2
BLOCK_RECORD
  5
1
330
0
100
AcDbSymbolTable
 70
     1
  0
BLOCK_RECORD
  5
1F
330
1
100
AcDbSymbolTableRecord
100
AcDbBlockTableRecord
  2
*MODEL_SPACE
  0
BLOCK_RECORD
  5
1B
330
1
100
AcDbSymbolTableRecord
100
AcDbBlockTableRecord
  2
*PAPER_SPACE
  0
ENDTAB
  0
ENDSEC
  0
SECTION
  2
BLOCKS
  0
BLOCK
  5
20
330
1F
100
AcDbEntity
  8
0
100
AcDbBlockBegin
  2
*MODEL_SPACE
 70
     0
 10
0.0
 20
0.0
 30
0.0
  3
*MODEL_SPACE
  1

  0
ENDBLK
  5
21
330
1F
100
AcDbEntity
  8
0
100
AcDbBlockEnd
  0
BLOCK
  5
1C
330
1B
100
AcDbEntity
 67
     1
  8
0
100
AcDbBlockBegin
  2
*PAPER_SPACE
 70
     0
 10
0.0
 20
0.0
 30
0.0
  3
*PAPER_SPACE
  1

  0
ENDBLK
  5
1D
330
1B
100
AcDbEntity
 67
     1
  8
0
100
AcDbBlockEnd
  0
ENDSEC
  0
SECTION
  2
ENTITIES
  0
SPLINE
  5
6F
330
1F
100
AcDbEntity
  8
0
100
AcDbSpline
210
0.0
220
0.0
230
1.0
 70
     8
 71
     3
 72
     8
 73
     4
 74
     0
 42
0.000000001
 43
0.0000000001
 40
0.0
 40
0.0
 40
0.0
 40
0.0
 40
1.0
 40
1.0
 40
1.0
 40
1.0
 10
48.9593
 20
-56.8045
 30
0.0
 10
55.0564
 20
-59.8612
 30
0.0
 10
61.8339
 20
-61.3081
 30
0.0
 10
68.6477
 20
-61.0078
 30
0.0
  0
SPLINE
  5
70
330
1F
100
AcDbEntity
  8
0
100
AcDbSpline
210
0.0
220
0.0
230
1.0
 70
     8
 71
     3
 72
    12
 73
     8
 74
     0
 42
0.000000001
 43
0.0000000001
 40
0.0
 40
0.0
 40
0.0
 40
0.0
 40
0.3333333333333333
 40
0.3333333333333333
 40
0.3333333333333333
 40
0.3333333333333333
 40
1.0
 40
1.0
 40
1.0
 40
1.0
 10
10.081
 20
57.6619
 30
0.0
 10
13.733
 20
38.684
 30
0.0
 10
26.3028
 20
22.627
 30
0.0
 10
43.8491
 20
14.5259
 30
0.0
 10
43.8491
 20
14.5259
 30
0.0
 10
61.3953
 20
6.4247
 30
0.0
 10
81.7695
 20
7.2713
 30
0.0
 10
98.5833
 20
16.8001
 30
0.0
  0
SPLINE
  5
71
330
1F
100
AcDbEntity
  8
0
100
AcDbSpline
210
0.0
220
0.0
230
1.0
 70
     8
 71
     3
 72
    12
 73
     8
 74
     0
 42
0.000000001
 43
0.0000000001
 40
0.0
 40
0.0
 40
0.0
 40
0.0
 40
0.3333333333333333
 40
0.3333333333333333
 40
0.3333333333333333
 40
0.3333333333333333
 40
1.0
 40
1.0
 40
1.0
 40
1.0
 10
108.2786
 20
-23.6437
 30
0.0
 10
107.9768
 20
-23.3824
 30
0.0
 10
107.5487
 20
-23.3256
 30
0.0
 10
107.1892
 20
-23.499
 30
0.0
 10
107.1892
 20
-23.499
 30
0.0
 10
106.8298
 20
-23.6725
 30
0.0
 10
106.6079
 20
-24.0431
 30
0.0
 10
106.6248
 20
-24.4418
 30
0.0
  0
SPLINE
  5
72
330
1F
100
AcDbEntity
  8
0
100
AcDbSpline
210
0.0
220
0.0
230
1.0
 70
     8
 71
     3
 72
     8
 73
     4
 74
     0
 42
0.000000001
 43
0.0000000001
 40
0.0
 40
0.0
 40
0.0
 40
0.0
 40
1.0
 40
1.0
 40
1.0
 40
1.0
 10
103.6503
 20
-25.2819
 30
0.0
 10
103.5735
 20
-21.7594
 30
0.0
 10
101.6486
 20
-18.5373
 30
0.0
 10
98.5833
 20
-16.8001
 30
0.0
  0
SPLINE
  5
73
330
1F
100
AcDbEntity
  8
0
100
AcDbSpline
210
0.0
220
0.0
230
1.0
 70
     8
 71
     3
 72
     8
 73
     4
 74
     0
 42
0.000000001
 43
0.0000000001
 40
0.0
 40
0.0
 40
0.0
 40
0.0
 40
1.0
 40
1.0
 40
1.0
 40
1.0
 10
18.3353
 20
120.1575
 30
0.0
 10
10.4967
 20
112.3944
 30
0.0
 10
4.5469
 20
102.9339
 30
0.0
 10
0.9452
 20
92.5063
 30
0.0
  0
SPLINE
  5
74
330
1F
100
AcDbEntity
  8
0
100
AcDbSpline
210
0.0
220
0.0
230
1.0
 70
     8
 71
     3
 72
     8
 73
     4
 74
     0
 42
0.000000001
 43
0.0000000001
 40
0.0
 40
0.0
 40
0.0
 40
0.0
 40
1.0
 40
1.0
 40
1.0
 40
1.0
 10
-0.9452
 20
92.5063
 30
0.0
 10
-4.5469
 20
102.9339
 30
0.0
 10
-10.4967
 20
112.3944
 30
0.0
 10
-18.3353
 20
120.1575
 30
0.0
  0
SPLINE
  5
75
330
1F
100
AcDbEntity
  8
0
100
AcDbSpline
210
0.0
220
0.0
230
1.0
 70
     8
 71
     3
 72
     8
 73
     4
 74
     0
 42
0.000000001
 43
0.0000000001
 40
0.0
 40
0.0
 40
0.0
 40
0.0
 40
1.0
 40
1.0
 40
1.0
 40
1.0
 10
0.9452
 20
-92.5063
 30
0.0
 10
4.5469
 20
-102.9339
 30
0.0
 10
10.4967
 20
-112.3944
 30
0.0
 10
18.3353
 20
-120.1575
 30
0.0
  0
SPLINE
  5
76
330
1F
100
AcDbEntity
  8
0
100
AcDbSpline
210
0.0
220
0.0
230
1.0
 70
     8
 71
     3
 72
     8
 73
     4
 74
     0
 42
0.000000001
 43
0.0000000001
 40
0.0
 40
0.0
 40
0.0
 40
0.0
 40
1.0
 40
1.0
 40
1.0
 40
1.0
 10
-18.3353
 20
-120.1575
 30
0.0
 10
-10.4967
 20
-112.3944
 30
0.0
 10
-4.5469
 20
-102.9339
 30
0.0
 10
-0.9452
 20
-92.5063
 30
0.0
  0
SPLINE
  5
77
330
1F
100
AcDbEntity
  8
0
100
AcDbSpline
210
0.0
220
0.0
230
1.0
 70
     8
 71
     3
 72
     8
 73
     4
 74
     0
 42
0.000000001
 43
0.0000000001
 40
0.0
 40
0.0
 40
0.0
 40
0.0
 40
1.0
 40
1.0
 40
1.0
 40
1.0
 10
-44.1777
 20
136.5859
 30
0.0
 10
-15.6573
 20
126.1112
 30
0.0
 10
15.6573
 20
126.1112
 30
0.0
 10
44.1777
 20
136.5859
 30
0.0
  0
SPLINE
  5
78
330
1F
100
AcDbEntity
  8
0
100
AcDbSpline
210
0.0
220
0.0
230
1.0
 70
     8
 71
     3
 72
     8
 73
     4
 74
     0
 42
0.000000001
 43
0.0000000001
 40
0.0
 40
0.0
 40
0.0
 40
0.0
 40
1.0
 40
1.0
 40
1.0
 40
1.0
 10
-17.503
 20
121.8597
 30
0.0
 10
-5.883
 20
120.3533
 30
0.0
 10
5.883
 20
120.3533
 30
0.0
 10
17.503
 20
121.8597
 30
0.0
  0
SPLINE
  5
79
330
1F
100
AcDbEntity
  8
0
100
AcDbSpline
210
0.0
220
0.0
230
1.0
 70
     8
 71
     3
 72
    12
 73
     8
 74
     0
 42
0.000000001
 43
0.0000000001
 40
0.0
 40
0.0
 40
0.0
 40
0.0
 40
0.3333333333333333
 40
0.3333333333333333
 40
0.3333333333333333
 40
0.3333333333333333
 40
1.0
 40
1.0
 40
1.0
 40
1.0
 10
99.4148
 20
-120.7198
 30
0.0
 10
116.0738
 20
-110.9231
 30
0.0
 10
126.9941
 20
-93.7019
 30
0.0
 10
128.7514
 20
-74.4559
 30
0.0
 10
128.7514
 20
-74.4559
 30
0.0
 10
130.5088
 20
-55.2099
 30
0.0
 10
122.8881
 20
-36.2956
 30
0.0
 10
108.2788
 20
-23.6439
 30
0.0
  0
SPLINE
  5
7A
330
1F
100
AcDbEntity
  8
0
100
AcDbSpline
210
0.0
220
0.0
230
1.0
 70
     8
 71
     3
 72
     8
 73
     4
 74
     0
 42
0.000000001
 43
0.0000000001
 40
0.0
 40
0.0
 40
0.0
 40
0.0
 40
1.0
 40
1.0
 40
1.0
 40
1.0
 10
89.5819
 20
-57.742
 30
0.0
 10
100.718
 20
-50.4064
 30
0.0
 10
107.1878
 20
-37.7651
 30
0.0
 10
106.6248
 20
-24.442
 30
0.0
  0
SPLINE
  5
7B
330
1F
100
AcDbEntity
  8
0
100
AcDbSpline
210
0.0
220
0.0
230
1.0
 70
     8
 71
     3
 72
     8
 73
     4
 74
     0
 42
0.000000001
 43
0.0000000001
 40
0.0
 40
0.0
 40
0.0
 40
0.0
 40
1.0
 40
1.0
 40
1.0
 40
1.0
 10
17.503
 20
-121.8597
 30
0.0
 10
5.883
 20
-120.3533
 30
0.0
 10
-5.883
 20
-120.3533
 30
0.0
 10
-17.503
 20
-121.8597
 30
0.0
  0
SPLINE
  5
7C
330
1F
100
AcDbEntity
  8
0
100
AcDbSpline
210
0.0
220
0.0
230
1.0
 70
     8
 71
     3
 72
     8
 73
     4
 74
     0
 42
0.000000001
 43
0.0000000001
 40
0.0
 40
0.0
 40
0.0
 40
0.0
 40
1.0
 40
1.0
 40
1.0
 40
1.0
 10
44.1777
 20
-136.5859
 30
0.0
 10
15.6573
 20
-126.1112
 30
0.0
 10
-15.6573
 20
-126.1112
 30
0.0
 10
-44.1777
 20
-136.5859
 30
0.0
  0
SPLINE
  5
7D
330
1F
100
AcDbEntity
  8
0
100
AcDbSpline
210
0.0
220
0.0
230
1.0
 70
     8
 71
     3
 72
    12
 73
     8
 74
     0
 42
0.000000001
 43
0.0000000001
 40
0.0
 40
0.0
 40
0.0
 40
0.0
 40
0.3333333333333333
 40
0.3333333333333333
 40
0.3333333333333333
 40
0.3333333333333333
 40
1.0
 40
1.0
 40
1.0
 40
1.0
 10
68.9445
 20
-61.0002
 30
0.0
 10
78.3055
 20
-60.9353
 30
0.0
 10
87.2493
 20
-57.1185
 30
0.0
 10
93.7728
 20
-50.4047
 30
0.0
 10
93.7728
 20
-50.4047
 30
0.0
 10
100.2963
 20
-43.6909
 30
0.0
 10
103.8545
 20
-34.6411
 30
0.0
 10
103.6503
 20
-25.2821
 30
0.0
  0
SPLINE
  5
7E
330
1F
100
AcDbEntity
  8
0
100
AcDbSpline
210
0.0
220
0.0
230
1.0
 70
     8
 71
     3
 72
    12
 73
     8
 74
     0
 42
0.000000001
 43
0.0000000001
 40
0.0
 40
0.0
 40
0.0
 40
0.0
 40
0.3333333333333333
 40
0.3333333333333333
 40
0.3333333333333333
 40
0.3333333333333333
 40
1.0
 40
1.0
 40
1.0
 40
1.0
 10
98.5833
 20
-16.8001
 30
0.0
 10
81.7695
 20
-7.2713
 30
0.0
 10
61.3953
 20
-6.4247
 30
0.0
 10
43.8491
 20
-14.5259
 30
0.0
 10
43.8491
 20
-14.5259
 30
0.0
 10
26.3028
 20
-22.627
 30
0.0
 10
13.733
 20
-38.684
 30
0.0
 10
10.081
 20
-57.6619
 30
0.0
  0
SPLINE
  5
7F
330
1F
100
AcDbEntity
  8
0
100
AcDbSpline
210
0.0
220
0.0
230
1.0
 70
     8
 71
     3
 72
    12
 73
     8
 74
     0
 42
0.000000001
 43
0.0000000001
 40
0.0
 40
0.0
 40
0.0
 40
0.0
 40
0.3333333333333333
 40
0.3333333333333333
 40
0.3333333333333333
 40
0.3333333333333333
 40
1.0
 40
1.0
 40
1.0
 40
1.0
 10
-119.6608
 20
-17.8386
 30
0.0
 10
-114.8993
 20
-13.1237
 30
0.0
 10
-112.2204
 20
-6.701
 30
0.0
 10
-112.2204
 20
-0.0001
 30
0.0
 10
-112.2204
 20
-0.0001
 30
0.0
 10
-112.2203
 20
6.7008
 30
0.0
 10
-114.8992
 20
13.1236
 30
0.0
 10
-119.6607
 20
17.8385
 30
0.0
  0
SPLINE
  5
80
330
1F
100
AcDbEntity
  8
0
100
AcDbSpline
210
0.0
220
0.0
230
1.0
 70
     8
 71
     3
 72
     8
 73
     4
 74
     0
 42
0.000000001
 43
0.0000000001
 40
0.0
 40
0.0
 40
0.0
 40
0.0
 40
1.0
 40
1.0
 40
1.0
 40
1.0
 10
104.568
 20
4.7852
 30
0.0
 10
104.1045
 20
1.6119
 30
0.0
 10
104.1045
 20
-1.6119
 30
0.0
 10
104.568
 20
-4.7852
 30
0.0
  0
SPLINE
  5
81
330
1F
100
AcDbEntity
  8
0
100
AcDbSpline
210
0.0
220
0.0
230
1.0
 70
     8
 71
     3
 72
    12
 73
     8
 74
     0
 42
0.000000001
 43
0.0000000001
 40
0.0
 40
0.0
 40
0.0
 40
0.0
 40
0.3333333333333333
 40
0.3333333333333333
 40
0.3333333333333333
 40
0.3333333333333333
 40
1.0
 40
1.0
 40
1.0
 40
1.0
 10
-119.6608
 20
-17.8386
 30
0.0
 10
-143.7247
 20
-41.6671
 30
0.0
 10
-147.9302
 20
-79.0446
 30
0.0
 10
-129.7629
 20
-107.6247
 30
0.0
 10
-129.7629
 20
-107.6247
 30
0.0
 10
-111.5957
 20
-136.2047
 30
0.0
 10
-75.967
 20
-148.2611
 30
0.0
 10
-44.1777
 20
-136.5859
 30
0.0
  0
SPLINE
  5
82
330
1F
100
AcDbEntity
  8
0
100
AcDbSpline
210
0.0
220
0.0
230
1.0
 70
     8
 71
     3
 72
    12
 73
     8
 74
     0
 42
0.000000001
 43
0.0000000001
 40
0.0
 40
0.0
 40
0.0
 40
0.0
 40
0.3333333333333333
 40
0.3333333333333333
 40
0.3333333333333333
 40
0.3333333333333333
 40
1.0
 40
1.0
 40
1.0
 40
1.0
 10
-44.1777
 20
136.5859
 30
0.0
 10
-75.967
 20
148.2611
 30
0.0
 10
-111.5957
 20
136.2047
 30
0.0
 10
-129.7629
 20
107.6247
 30
0.0
 10
-129.7629
 20
107.6247
 30
0.0
 10
-147.9302
 20
79.0446
 30
0.0
 10
-143.7247
 20
41.6671
 30
0.0
 10
-119.6608
 20
17.8386
 30
0.0
  0
SPLINE
  5
83
330
1F
100
AcDbEntity
  8
0
100
AcDbSpline
210
0.0
220
0.0
230
1.0
 70
     8
 71
     3
 72
     8
 73
     4
 74
     0
 42
0.000000001
 43
0.0000000001
 40
0.0
 40
0.0
 40
0.0
 40
0.0
 40
1.0
 40
1.0
 40
1.0
 40
1.0
 10
-104.568
 20
-4.7852
 30
0.0
 10
-104.1045
 20
-1.612
 30
0.0
 10
-104.1045
 20
1.6118
 30
0.0
 10
-104.568
 20
4.785
 30
0.0
  0
SPLINE
  5
84
330
1F
100
AcDbEntity
  8
0
100
AcDbSpline
210
0.0
220
0.0
230
1.0
 70
     8
 71
     3
 72
    12
 73
     8
 74
     0
 42
0.000000001
 43
0.0000000001
 40
0.0
 40
0.0
 40
0.0
 40
0.0
 40
0.3333333333333333
 40
0.3333333333333333
 40
0.3333333333333333
 40
0.3333333333333333
 40
1.0
 40
1.0
 40
1.0
 40
1.0
 10
119.6608
 20
17.8386
 30
0.0
 10
114.8993
 20
13.1237
 30
0.0
 10
112.2204
 20
6.7009
 30
0.0
 10
112.2204
 20
0.0
 30
0.0
 10
112.2204
 20
0.0
 30
0.0
 10
112.2204
 20
-6.7009
 30
0.0
 10
114.8993
 20
-13.1237
 30
0.0
 10
119.6608
 20
-17.8386
 30
0.0
  0
SPLINE
  5
85
330
1F
100
AcDbEntity
  8
0
100
AcDbSpline
210
0.0
220
0.0
230
1.0
 70
     8
 71
     3
 72
    12
 73
     8
 74
     0
 42
0.000000001
 43
0.0000000001
 40
0.0
 40
0.0
 40
0.0
 40
0.0
 40
0.3333333333333333
 40
0.3333333333333333
 40
0.3333333333333333
 40
0.3333333333333333
 40
1.0
 40
1.0
 40
1.0
 40
1.0
 10
44.1777
 20
-136.5859
 30
0.0
 10
75.9669
 20
-148.2611
 30
0.0
 10
111.5956
 20
-136.2048
 30
0.0
 10
129.7628
 20
-107.6248
 30
0.0
 10
129.7628
 20
-107.6248
 30
0.0
 10
147.9301
 20
-79.0449
 30
0.0
 10
143.7248
 20
-41.6675
 30
0.0
 10
119.6611
 20
-17.8389
 30
0.0
  0
SPLINE
  5
86
330
1F
100
AcDbEntity
  8
0
100
AcDbSpline
210
0.0
220
0.0
230
1.0
 70
     8
 71
     3
 72
    12
 73
     8
 74
     0
 42
0.000000001
 43
0.0000000001
 40
0.0
 40
0.0
 40
0.0
 40
0.0
 40
0.3333333333333333
 40
0.3333333333333333
 40
0.3333333333333333
 40
0.3333333333333333
 40
1.0
 40
1.0
 40
1.0
 40
1.0
 10
119.6608
 20
17.8386
 30
0.0
 10
143.7247
 20
41.6671
 30
0.0
 10
147.9302
 20
79.0445
 30
0.0
 10
129.763
 20
107.6245
 30
0.0
 10
129.763
 20
107.6245
 30
0.0
 10
111.5959
 20
136.2045
 30
0.0
 10
75.9673
 20
148.2611
 30
0.0
 10
44.1781
 20
136.586
 30
0.0
  0
SPLINE
  5
87
330
1F
100
AcDbEntity
  8
0
100
AcDbSpline
210
0.0
220
0.0
230
1.0
 70
    11
 71
     3
 72
    20
 73
    16
 74
     0
 42
0.000000001
 43
0.0000000001
 40
0.0
 40
0.0
 40
0.0
 40
0.0
 40
0.2
 40
0.2
 40
0.2
 40
0.2
 40
0.4
 40
0.4
 40
0.4
 40
0.4
 40
0.6
 40
0.6
 40
0.6
 40
0.6
 40
1.0
 40
1.0
 40
1.0
 40
1.0
 10
1.5
 20
48.433
 30
0.0
 10
1.5
 20
49.2615
 30
0.0
 10
0.8284
 20
49.933
 30
0.0
 10
0.0
 20
49.933
 30
0.0
 10
0.0
 20
49.933
 30
0.0
 10
-0.8284
 20
49.933
 30
0.0
 10
-1.5
 20
49.2615
 30
0.0
 10
-1.5
 20
48.433
 30
0.0
 10
-1.5
 20
48.433
 30
0.0
 10
-1.5
 20
47.6046
 30
0.0
 10
-0.8284
 20
46.933
 30
0.0
 10
0.0
 20
46.933
 30
0.0
 10
0.0
 20
46.933
 30
0.0
 10
0.8284
 20
46.933
 30
0.0
 10
1.5
 20
47.6046
 30
0.0
 10
1.5
 20
48.433
 30
0.0
  0
SPLINE
  5
88
330
1F
100
AcDbEntity
  8
0
100
AcDbSpline
210
0.0
220
0.0
230
1.0
 70
    11
 71
     3
 72
    20
 73
    16
 74
     0
 42
0.000000001
 43
0.0000000001
 40
0.0
 40
0.0
 40
0.0
 40
0.0
 40
0.2
 40
0.2
 40
0.2
 40
0.2
 40
0.4
 40
0.4
 40
0.4
 40
0.4
 40
0.6
 40
0.6
 40
0.6
 40
0.6
 40
1.0
 40
1.0
 40
1.0
 40
1.0
 10
1.5
 20
-48.433
 30
0.0
 10
1.5
 20
-47.6046
 30
0.0
 10
0.8284
 20
-46.933
 30
0.0
 10
0.0
 20
-46.933
 30
0.0
 10
0.0
 20
-46.933
 30
0.0
 10
-0.8284
 20
-46.933
 30
0.0
 10
-1.5
 20
-47.6046
 30
0.0
 10
-1.5
 20
-48.433
 30
0.0
 10
-1.5
 20
-48.433
 30
0.0
 10
-1.5
 20
-49.2615
 30
0.0
 10
-0.8284
 20
-49.933
 30
0.0
 10
0.0
 20
-49.933
 30
0.0
 10
0.0
 20
-49.933
 30
0.0
 10
0.8284
 20
-49.933
 30
0.0
 10
1.5
 20
-49.2615
 30
0.0
 10
1.5
 20
-48.433
 30
0.0
  0
SPLINE
  5
89
330
1F
100
AcDbEntity
  8
0
100
AcDbSpline
210
0.0
220
0.0
230
1.0
 70
    11
 71
     3
 72
    20
 73
    16
 74
     0
 42
0.000000001
 43
0.0000000001
 40
0.0
 40
0.0
 40
0.0
 40
0.0
 40
0.2
 40
0.2
 40
0.2
 40
0.2
 40
0.4
 40
0.4
 40
0.4
 40
0.4
 40
0.6
 40
0.6
 40
0.6
 40
0.6
 40
1.0
 40
1.0
 40
1.0
 40
1.0
 10
49.933
 20
0.0
 30
0.0
 10
49.933
 20
0.8284
 30
0.0
 10
49.2615
 20
1.5
 30
0.0
 10
48.433
 20
1.5
 30
0.0
 10
48.433
 20
1.5
 30
0.0
 10
47.6046
 20
1.5
 30
0.0
 10
46.933
 20
0.8284
 30
0.0
 10
46.933
 20
0.0
 30
0.0
 10
46.933
 20
0.0
 30
0.0
 10
46.933
 20
-0.8284
 30
0.0
 10
47.6046
 20
-1.5
 30
0.0
 10
48.433
 20
-1.5
 30
0.0
 10
48.433
 20
-1.5
 30
0.0
 10
49.2615
 20
-1.5
 30
0.0
 10
49.933
 20
-0.8284
 30
0.0
 10
49.933
 20
0.0
 30
0.0
  0
SPLINE
  5
8A
330
1F
100
AcDbEntity
  8
0
100
AcDbSpline
210
0.0
220
0.0
230
1.0
 70
    11
 71
     3
 72
    20
 73
    16
 74
     0
 42
0.000000001
 43
0.0000000001
 40
0.0
 40
0.0
 40
0.0
 40
0.0
 40
0.2
 40
0.2
 40
0.2
 40
0.2
 40
0.4
 40
0.4
 40
0.4
 40
0.4
 40
0.6
 40
0.6
 40
0.6
 40
0.6
 40
1.0
 40
1.0
 40
1.0
 40
1.0
 10
-46.933
 20
0.0
 30
0.0
 10
-46.933
 20
0.8284
 30
0.0
 10
-47.6046
 20
1.5
 30
0.0
 10
-48.433
 20
1.5
 30
0.0
 10
-48.433
 20
1.5
 30
0.0
 10
-49.2615
 20
1.5
 30
0.0
 10
-49.933
 20
0.8284
 30
0.0
 10
-49.933
 20
0.0
 30
0.0
 10
-49.933
 20
0.0
 30
0.0
 10
-49.933
 20
-0.8284
 30
0.0
 10
-49.2615
 20
-1.5
 30
0.0
 10
-48.433
 20
-1.5
 30
0.0
 10
-48.433
 20
-1.5
 30
0.0
 10
-47.6046
 20
-1.5
 30
0.0
 10
-46.933
 20
-0.8284
 30
0.0
 10
-46.933
 20
0.0
 30
0.0
  0
SPLINE
  5
8B
330
1F
100
AcDbEntity
  8
0
100
AcDbSpline
210
0.0
220
0.0
230
1.0
 70
    11
 71
     3
 72
    20
 73
    16
 74
     0
 42
0.000000001
 43
0.0000000001
 40
0.0
 40
0.0
 40
0.0
 40
0.0
 40
0.2
 40
0.2
 40
0.2
 40
0.2
 40
0.4
 40
0.4
 40
0.4
 40
0.4
 40
0.6
 40
0.6
 40
0.6
 40
0.6
 40
1.0
 40
1.0
 40
1.0
 40
1.0
 10
-115.5833
 20
117.0833
 30
0.0
 10
-115.5833
 20
117.9117
 30
0.0
 10
-116.2548
 20
118.5833
 30
0.0
 10
-117.0833
 20
118.5833
 30
0.0
 10
-117.0833
 20
118.5833
 30
0.0
 10
-117.9117
 20
118.5833
 30
0.0
 10
-118.5833
 20
117.9117
 30
0.0
 10
-118.5833
 20
117.0833
 30
0.0
 10
-118.5833
 20
117.0833
 30
0.0
 10
-118.5833
 20
116.2548
 30
0.0
 10
-117.9117
 20
115.5833
 30
0.0
 10
-117.0833
 20
115.5833
 30
0.0
 10
-117.0833
 20
115.5833
 30
0.0
 10
-116.2548
 20
115.5833
 30
0.0
 10
-115.5833
 20
116.2548
 30
0.0
 10
-115.5833
 20
117.0833
 30
0.0
  0
SPLINE
  5
8C
330
1F
100
AcDbEntity
  8
0
100
AcDbSpline
210
0.0
220
0.0
230
1.0
 70
    11
 71
     3
 72
    20
 73
    16
 74
     0
 42
0.000000001
 43
0.0000000001
 40
0.0
 40
0.0
 40
0.0
 40
0.0
 40
0.2
 40
0.2
 40
0.2
 40
0.2
 40
0.4
 40
0.4
 40
0.4
 40
0.4
 40
0.6
 40
0.6
 40
0.6
 40
0.6
 40
1.0
 40
1.0
 40
1.0
 40
1.0
 10
118.5833
 20
117.0833
 30
0.0
 10
118.5833
 20
117.9117
 30
0.0
 10
117.9117
 20
118.5833
 30
0.0
 10
117.0833
 20
118.5833
 30
0.0
 10
117.0833
 20
118.5833
 30
0.0
 10
116.2548
 20
118.5833
 30
0.0
 10
115.5833
 20
117.9117
 30
0.0
 10
115.5833
 20
117.0833
 30
0.0
 10
115.5833
 20
117.0833
 30
0.0
 10
115.5833
 20
116.2548
 30
0.0
 10
116.2548
 20
115.5833
 30
0.0
 10
117.0833
 20
115.5833
 30
0.0
 10
117.0833
 20
115.5833
 30
0.0
 10
117.9117
 20
115.5833
 30
0.0
 10
118.5833
 20
116.2548
 30
0.0
 10
118.5833
 20
117.0833
 30
0.0
  0
SPLINE
  5
8D
330
1F
100
AcDbEntity
  8
0
100
AcDbSpline
210
0.0
220
0.0
230
1.0
 70
    11
 71
     3
 72
    20
 73
    16
 74
     0
 42
0.000000001
 43
0.0000000001
 40
0.0
 40
0.0
 40
0.0
 40
0.0
 40
0.2
 40
0.2
 40
0.2
 40
0.2
 40
0.4
 40
0.4
 40
0.4
 40
0.4
 40
0.6
 40
0.6
 40
0.6
 40
0.6
 40
1.0
 40
1.0
 40
1.0
 40
1.0
 10
1.5
 20
124.7299
 30
0.0
 10
1.5
 20
125.5583
 30
0.0
 10
0.8284
 20
126.2299
 30
0.0
 10
0.0
 20
126.2299
 30
0.0
 10
0.0
 20
126.2299
 30
0.0
 10
-0.8284
 20
126.2299
 30
0.0
 10
-1.5
 20
125.5583
 30
0.0
 10
-1.5
 20
124.7299
 30
0.0
 10
-1.5
 20
124.7299
 30
0.0
 10
-1.5
 20
123.9014
 30
0.0
 10
-0.8284
 20
123.2299
 30
0.0
 10
0.0
 20
123.2299
 30
0.0
 10
0.0
 20
123.2299
 30
0.0
 10
0.8284
 20
123.2299
 30
0.0
 10
1.5
 20
123.9014
 30
0.0
 10
1.5
 20
124.7299
 30
0.0
  0
SPLINE
  5
8E
330
1F
100
AcDbEntity
  8
0
100
AcDbSpline
210
0.0
220
0.0
230
1.0
 70
    11
 71
     3
 72
    20
 73
    16
 74
     0
 42
0.000000001
 43
0.0000000001
 40
0.0
 40
0.0
 40
0.0
 40
0.0
 40
0.2
 40
0.2
 40
0.2
 40
0.2
 40
0.4
 40
0.4
 40
0.4
 40
0.4
 40
0.6
 40
0.6
 40
0.6
 40
0.6
 40
1.0
 40
1.0
 40
1.0
 40
1.0
 10
1.5
 20
-124.7299
 30
0.0
 10
1.5
 20
-123.9014
 30
0.0
 10
0.8284
 20
-123.2299
 30
0.0
 10
0.0
 20
-123.2299
 30
0.0
 10
0.0
 20
-123.2299
 30
0.0
 10
-0.8284
 20
-123.2299
 30
0.0
 10
-1.5
 20
-123.9014
 30
0.0
 10
-1.5
 20
-124.7299
 30
0.0
 10
-1.5
 20
-124.7299
 30
0.0
 10
-1.5
 20
-125.5583
 30
0.0
 10
-0.8284
 20
-126.2299
 30
0.0
 10
0.0
 20
-126.2299
 30
0.0
 10
0.0
 20
-126.2299
 30
0.0
 10
0.8284
 20
-126.2299
 30
0.0
 10
1.5
 20
-125.5583
 30
0.0
 10
1.5
 20
-124.7299
 30
0.0
  0
SPLINE
  5
8F
330
1F
100
AcDbEntity
  8
0
100
AcDbSpline
210
0.0
220
0.0
230
1.0
 70
    11
 71
     3
 72
    20
 73
    16
 74
     0
 42
0.000000001
 43
0.0000000001
 40
0.0
 40
0.0
 40
0.0
 40
0.0
 40
0.2
 40
0.2
 40
0.2
 40
0.2
 40
0.4
 40
0.4
 40
0.4
 40
0.4
 40
0.6
 40
0.6
 40
0.6
 40
0.6
 40
1.0
 40
1.0
 40
1.0
 40
1.0
 10
-115.5833
 20
-117.0833
 30
0.0
 10
-115.5833
 20
-116.2548
 30
0.0
 10
-116.2548
 20
-115.5833
 30
0.0
 10
-117.0833
 20
-115.5833
 30
0.0
 10
-117.0833
 20
-115.5833
 30
0.0
 10
-117.9117
 20
-115.5833
 30
0.0
 10
-118.5833
 20
-116.2548
 30
0.0
 10
-118.5833
 20
-117.0833
 30
0.0
 10
-118.5833
 20
-117.0833
 30
0.0
 10
-118.5833
 20
-117.9117
 30
0.0
 10
-117.9117
 20
-118.5833
 30
0.0
 10
-117.0833
 20
-118.5833
 30
0.0
 10
-117.0833
 20
-118.5833
 30
0.0
 10
-116.2548
 20
-118.5833
 30
0.0
 10
-115.5833
 20
-117.9117
 30
0.0
 10
-115.5833
 20
-117.0833
 30
0.0
  0
SPLINE
  5
90
330
1F
100
AcDbEntity
  8
0
100
AcDbSpline
210
0.0
220
0.0
230
1.0
 70
    11
 71
     3
 72
    20
 73
    16
 74
     0
 42
0.000000001
 43
0.0000000001
 40
0.0
 40
0.0
 40
0.0
 40
0.0
 40
0.2
 40
0.2
 40
0.2
 40
0.2
 40
0.4
 40
0.4
 40
0.4
 40
0.4
 40
0.6
 40
0.6
 40
0.6
 40
0.6
 40
1.0
 40
1.0
 40
1.0
 40
1.0
 10
118.5833
 20
-117.0833
 30
0.0
 10
118.5833
 20
-116.2548
 30
0.0
 10
117.9117
 20
-115.5833
 30
0.0
 10
117.0833
 20
-115.5833
 30
0.0
 10
117.0833
 20
-115.5833
 30
0.0
 10
116.2548
 20
-115.5833
 30
0.0
 10
115.5833
 20
-116.2548
 30
0.0
 10
115.5833
 20
-117.0833
 30
0.0
 10
115.5833
 20
-117.0833
 30
0.0
 10
115.5833
 20
-117.9117
 30
0.0
 10
116.2548
 20
-118.5833
 30
0.0
 10
117.0833
 20
-118.5833
 30
0.0
 10
117.0833
 20
-118.5833
 30
0.0
 10
117.9117
 20
-118.5833
 30
0.0
 10
118.5833
 20
-117.9117
 30
0.0
 10
118.5833
 20
-117.0833
 30
0.0
  0
SPLINE
  5
91
330
1F
100
AcDbEntity
  8
0
100
AcDbSpline
210
0.0
220
0.0
230
1.0
 70
    11
 71
     3
 72
    20
 73
    16
 74
     0
 42
0.000000001
 43
0.0000000001
 40
0.0
 40
0.0
 40
0.0
 40
0.0
 40
0.2
 40
0.2
 40
0.2
 40
0.2
 40
0.4
 40
0.4
 40
0.4
 40
0.4
 40
0.6
 40
0.6
 40
0.6
 40
0.6
 40
1.0
 40
1.0
 40
1.0
 40
1.0
 10
109.7204
 20
0.0
 30
0.0
 10
109.7204
 20
0.8284
 30
0.0
 10
109.0488
 20
1.5
 30
0.0
 10
108.2204
 20
1.5
 30
0.0
 10
108.2204
 20
1.5
 30
0.0
 10
107.3919
 20
1.5
 30
0.0
 10
106.7204
 20
0.8284
 30
0.0
 10
106.7204
 20
0.0
 30
0.0
 10
106.7204
 20
0.0
 30
0.0
 10
106.7204
 20
-0.8284
 30
0.0
 10
107.3919
 20
-1.5
 30
0.0
 10
108.2204
 20
-1.5
 30
0.0
 10
108.2204
 20
-1.5
 30
0.0
 10
109.0488
 20
-1.5
 30
0.0
 10
109.7204
 20
-0.8284
 30
0.0
 10
109.7204
 20
0.0
 30
0.0
  0
SPLINE
  5
92
330
1F
100
AcDbEntity
  8
0
100
AcDbSpline
210
0.0
220
0.0
230
1.0
 70
    11
 71
     3
 72
    20
 73
    16
 74
     0
 42
0.000000001
 43
0.0000000001
 40
0.0
 40
0.0
 40
0.0
 40
0.0
 40
0.2
 40
0.2
 40
0.2
 40
0.2
 40
0.4
 40
0.4
 40
0.4
 40
0.4
 40
0.6
 40
0.6
 40
0.6
 40
0.6
 40
1.0
 40
1.0
 40
1.0
 40
1.0
 10
-106.7204
 20
0.0
 30
0.0
 10
-106.7204
 20
0.8284
 30
0.0
 10
-107.3919
 20
1.5
 30
0.0
 10
-108.2204
 20
1.5
 30
0.0
 10
-108.2204
 20
1.5
 30
0.0
 10
-109.0488
 20
1.5
 30
0.0
 10
-109.7204
 20
0.8284
 30
0.0
 10
-109.7204
 20
0.0
 30
0.0
 10
-109.7204
 20
0.0
 30
0.0
 10
-109.7204
 20
-0.8284
 30
0.0
 10
-109.0488
 20
-1.5
 30
0.0
 10
-108.2204
 20
-1.5
 30
0.0
 10
-108.2204
 20
-1.5
 30
0.0
 10
-107.3919
 20
-1.5
 30
0.0
 10
-106.7204
 20
-0.8284
 30
0.0
 10
-106.7204
 20
0.0
 30
0.0
  0
SPLINE
  5
93
330
1F
100
AcDbEntity
  8
0
100
AcDbSpline
210
0.0
220
0.0
230
1.0
 70
     8
 71
     3
 72
     8
 73
     4
 74
     0
 42
0.000000001
 43
0.0000000001
 40
0.0
 40
0.0
 40
0.0
 40
0.0
 40
1.0
 40
1.0
 40
1.0
 40
1.0
 10
48.9593
 20
-56.8045
 30
0.0
 10
37.0384
 20
-50.8282
 30
0.0
 10
22.8558
 20
-51.5459
 30
0.0
 10
11.5991
 20
-58.695
 30
0.0
  0
SPLINE
  5
94
330
1F
100
AcDbEntity
  8
0
100
AcDbSpline
210
0.0
220
0.0
230
1.0
 70
     8
 71
     3
 72
    12
 73
     8
 74
     0
 42
0.000000001
 43
0.0000000001
 40
0.0
 40
0.0
 40
0.0
 40
0.0
 40
0.3333333333333333
 40
0.3333333333333333
 40
0.3333333333333333
 40
0.3333333333333333
 40
1.0
 40
1.0
 40
1.0
 40
1.0
 10
62.0997
 20
-73.048
 30
0.0
 10
57.363
 20
-64.9736
 30
0.0
 10
49.5856
 20
-59.1364
 30
0.0
 10
40.5095
 20
-56.8438
 30
0.0
 10
40.5095
 20
-56.8438
 30
0.0
 10
31.4334
 20
-54.5511
 30
0.0
 10
21.8169
 20
-55.9946
 30
0.0
 10
13.8139
 20
-60.851
 30
0.0
  0
SPLINE
  5
95
330
1F
100
AcDbEntity
  8
0
100
AcDbSpline
210
0.0
220
0.0
230
1.0
 70
     8
 71
     3
 72
    12
 73
     8
 74
     0
 42
0.000000001
 43
0.0000000001
 40
0.0
 40
0.0
 40
0.0
 40
0.0
 40
0.3333333333333333
 40
0.3333333333333333
 40
0.3333333333333333
 40
0.3333333333333333
 40
1.0
 40
1.0
 40
1.0
 40
1.0
 10
10.081
 20
-57.6619
 30
0.0
 10
10.0056
 20
-58.0539
 30
0.0
 10
10.1704
 20
-58.4531
 30
0.0
 10
10.5004
 20
-58.6776
 30
0.0
 10
10.5004
 20
-58.6776
 30
0.0
 10
10.8303
 20
-58.9022
 30
0.0
 10
11.2622
 20
-58.909
 30
0.0
 10
11.5991
 20
-58.695
 30
0.0
  0
SPLINE
  5
96
330
1F
100
AcDbEntity
  8
0
100
AcDbSpline
210
0.0
220
0.0
230
1.0
 70
     8
 71
     3
 72
     8
 73
     4
 74
     0
 42
0.000000001
 43
0.0000000001
 40
0.0
 40
0.0
 40
0.0
 40
0.0
 40
1.0
 40
1.0
 40
1.0
 40
1.0
 10
13.8139
 20
-60.851
 30
0.0
 10
10.8017
 20
-62.6788
 30
0.0
 10
8.9737
 20
-65.9569
 30
0.0
 10
9.0019
 20
-69.4801
 30
0.0
  0
SPLINE
  5
97
330
1F
100
AcDbEntity
  8
0
100
AcDbSpline
210
0.0
220
0.0
230
1.0
 70
     8
 71
     3
 72
    12
 73
     8
 74
     0
 42
0.000000001
 43
0.0000000001
 40
0.0
 40
0.0
 40
0.0
 40
0.0
 40
0.3333333333333333
 40
0.3333333333333333
 40
0.3333333333333333
 40
0.3333333333333333
 40
1.0
 40
1.0
 40
1.0
 40
1.0
 10
88.6404
 20
-125.6944
 30
0.0
 10
89.0176
 20
-125.5637
 30
0.0
 10
89.2809
 20
-125.2214
 30
0.0
 10
89.3104
 20
-124.8233
 30
0.0
 10
89.3104
 20
-124.8233
 30
0.0
 10
89.3399
 20
-124.4253
 30
0.0
 10
89.1299
 20
-124.0479
 30
0.0
 10
88.7761
 20
-123.8631
 30
0.0
  0
SPLINE
  5
98
330
1F
100
AcDbEntity
  8
0
100
AcDbSpline
210
0.0
220
0.0
230
1.0
 70
     8
 71
     3
 72
     8
 73
     4
 74
     0
 42
0.000000001
 43
0.0000000001
 40
0.0
 40
0.0
 40
0.0
 40
0.0
 40
1.0
 40
1.0
 40
1.0
 40
1.0
 10
89.5358
 20
-120.8671
 30
0.0
 10
92.6248
 20
-122.5618
 30
0.0
 10
96.3777
 20
-122.5058
 30
0.0
 10
99.4148
 20
-120.7198
 30
0.0
  0
SPLINE
  5
99
330
1F
100
AcDbEntity
  8
0
100
AcDbSpline
210
0.0
220
0.0
230
1.0
 70
     8
 71
     3
 72
    12
 73
     8
 74
     0
 42
0.000000001
 43
0.0000000001
 40
0.0
 40
0.0
 40
0.0
 40
0.0
 40
0.3333333333333333
 40
0.3333333333333333
 40
0.3333333333333333
 40
0.3333333333333333
 40
1.0
 40
1.0
 40
1.0
 40
1.0
 10
75.9558
 20
-72.9519
 30
0.0
 10
71.3315
 20
-81.0912
 30
0.0
 10
70.1651
 20
-90.7451
 30
0.0
 10
72.7176
 20
-99.7516
 30
0.0
 10
72.7176
 20
-99.7516
 30
0.0
 10
75.2702
 20
-108.7581
 30
0.0
 10
81.3286
 20
-116.3644
 30
0.0
 10
89.5358
 20
-120.8671
 30
0.0
  0
SPLINE
  5
9A
330
1F
100
AcDbEntity
  8
0
100
AcDbSpline
210
0.0
220
0.0
230
1.0
 70
     8
 71
     3
 72
     8
 73
     4
 74
     0
 42
0.000000001
 43
0.0000000001
 40
0.0
 40
0.0
 40
0.0
 40
0.0
 40
1.0
 40
1.0
 40
1.0
 40
1.0
 10
68.4588
 20
-92.4535
 30
0.0
 10
69.2435
 20
-105.7654
 30
0.0
 10
76.9564
 20
-117.6891
 30
0.0
 10
88.7761
 20
-123.8631
 30
0.0
  0
SPLINE
  5
9B
330
1F
100
AcDbEntity
  8
0
100
AcDbSpline
210
0.0
220
0.0
230
1.0
 70
     8
 71
     3
 72
    12
 73
     8
 74
     0
 42
0.000000001
 43
0.0000000001
 40
0.0
 40
0.0
 40
0.0
 40
0.0
 40
0.3333333333333333
 40
0.3333333333333333
 40
0.3333333333333333
 40
0.3333333333333333
 40
1.0
 40
1.0
 40
1.0
 40
1.0
 10
9.0019
 20
-69.4801
 30
0.0
 10
9.1566
 20
-88.8056
 30
0.0
 10
18.6105
 20
-106.8735
 30
0.0
 10
34.3995
 20
-118.0184
 30
0.0
 10
34.3995
 20
-118.0184
 30
0.0
 10
50.1884
 20
-129.1633
 30
0.0
 10
70.3791
 20
-132.0206
 30
0.0
 10
88.6404
 20
-125.6944
 30
0.0
  0
SPLINE
  5
9C
330
1F
100
AcDbEntity
  8
0
100
AcDbSpline
210
0.0
220
0.0
230
1.0
 70
     8
 71
     3
 72
     8
 73
     4
 74
     0
 42
0.000000001
 43
0.0000000001
 40
0.0
 40
0.0
 40
0.0
 40
0.0
 40
1.0
 40
1.0
 40
1.0
 40
1.0
 10
89.5819
 20
-57.742
 30
0.0
 10
83.8862
 20
-61.4939
 30
0.0
 10
79.2444
 20
-66.6399
 30
0.0
 10
76.0976
 20
-72.691
 30
0.0
  0
SPLINE
  5
9D
330
1F
100
AcDbEntity
  8
0
100
AcDbSpline
210
0.0
220
0.0
230
1.0
 70
     8
 71
     3
 72
     8
 73
     4
 74
     0
 42
0.000000001
 43
0.0000000001
 40
0.0
 40
0.0
 40
0.0
 40
0.0
 40
1.0
 40
1.0
 40
1.0
 40
1.0
 10
68.4588
 20
-92.4535
 30
0.0
 10
68.0574
 20
-85.6449
 30
0.0
 10
65.9217
 20
-79.052
 30
0.0
 10
62.2547
 20
-73.3012
 30
0.0
  0
SPLINE
  5
9E
330
1F
100
AcDbEntity
  8
0
100
AcDbSpline
210
0.0
220
0.0
230
1.0
 70
     8
 71
     3
 72
     8
 73
     4
 74
     0
 42
0.000000001
 43
0.0000000001
 40
0.0
 40
0.0
 40
0.0
 40
0.0
 40
1.0
 40
1.0
 40
1.0
 40
1.0
 10
75.9558
 20
-72.9519
 30
0.0
 10
76.0047
 20
-72.8658
 30
0.0
 10
76.052
 20
-72.7788
 30
0.0
 10
76.0976
 20
-72.691
 30
0.0
  0
SPLINE
  5
9F
330
1F
100
AcDbEntity
  8
0
100
AcDbSpline
210
0.0
220
0.0
230
1.0
 70
    11
 71
     3
 72
    20
 73
    16
 74
     0
 42
0.000000001
 43
0.0000000001
 40
0.0
 40
0.0
 40
0.0
 40
0.0
 40
0.2
 40
0.2
 40
0.2
 40
0.2
 40
0.4
 40
0.4
 40
0.4
 40
0.4
 40
0.6
 40
0.6
 40
0.6
 40
0.6
 40
1.0
 40
1.0
 40
1.0
 40
1.0
 10
75.5
 20
69.0
 30
0.0
 10
75.5
 20
72.5898
 30
0.0
 10
72.5899
 20
75.5
 30
0.0
 10
69.0
 20
75.5
 30
0.0
 10
69.0
 20
75.5
 30
0.0
 10
65.4102
 20
75.5
 30
0.0
 10
62.5
 20
72.5899
 30
0.0
 10
62.5
 20
69.0
 30
0.0
 10
62.5
 20
69.0
 30
0.0
 10
62.5
 20
65.4102
 30
0.0
 10
65.4101
 20
62.5
 30
0.0
 10
69.0
 20
62.5
 30
0.0
 10
69.0
 20
62.5
 30
0.0
 10
72.5898
 20
62.5
 30
0.0
 10
75.5
 20
65.4101
 30
0.0
 10
75.5
 20
69.0
 30
0.0
  0
SPLINE
  5
A0
330
1F
100
AcDbEntity
  8
0
100
AcDbSpline
210
0.0
220
0.0
230
1.0
 70
     8
 71
     3
 72
     8
 73
     4
 74
     0
 42
0.000000001
 43
0.0000000001
 40
0.0
 40
0.0
 40
0.0
 40
0.0
 40
1.0
 40
1.0
 40
1.0
 40
1.0
 10
62.0997
 20
-73.048
 30
0.0
 10
62.1498
 20
-73.1333
 30
0.0
 10
62.2015
 20
-73.2178
 30
0.0
 10
62.2547
 20
-73.3012
 30
0.0
  0
SPLINE
  5
A1
330
1F
100
AcDbEntity
  8
0
100
AcDbSpline
210
0.0
220
0.0
230
1.0
 70
     8
 71
     3
 72
     8
 73
     4
 74
     0
 42
0.000000001
 43
0.0000000001
 40
0.0
 40
0.0
 40
0.0
 40
0.0
 40
1.0
 40
1.0
 40
1.0
 40
1.0
 10
68.6477
 20
61.0078
 30
0.0
 10
68.7466
 20
61.0034
 30
0.0
 10
68.8455
 20
61.0009
 30
0.0
 10
68.9445
 20
61.0002
 30
0.0
  0
SPLINE
  5
A2
330
1F
100
AcDbEntity
  8
0
100
AcDbSpline
210
0.0
220
0.0
230
1.0
 70
     8
 71
     3
 72
    12
 73
     8
 74
     0
 42
0.000000001
 43
0.0000000001
 40
0.0
 40
0.0
 40
0.0
 40
0.0
 40
0.3333333333333333
 40
0.3333333333333333
 40
0.3333333333333333
 40
0.3333333333333333
 40
1.0
 40
1.0
 40
1.0
 40
1.0
 10
13.8139
 20
60.851
 30
0.0
 10
21.8169
 20
55.9946
 30
0.0
 10
31.4334
 20
54.5511
 30
0.0
 10
40.5095
 20
56.8438
 30
0.0
 10
40.5095
 20
56.8438
 30
0.0
 10
49.5856
 20
59.1364
 30
0.0
 10
57.363
 20
64.9736
 30
0.0
 10
62.0997
 20
73.048
 30
0.0
  0
SPLINE
  5
A3
330
1F
100
AcDbEntity
  8
0
100
AcDbSpline
210
0.0
220
0.0
230
1.0
 70
     8
 71
     3
 72
    12
 73
     8
 74
     0
 42
0.000000001
 43
0.0000000001
 40
0.0
 40
0.0
 40
0.0
 40
0.0
 40
0.3333333333333333
 40
0.3333333333333333
 40
0.3333333333333333
 40
0.3333333333333333
 40
1.0
 40
1.0
 40
1.0
 40
1.0
 10
89.5358
 20
120.8671
 30
0.0
 10
81.3286
 20
116.3644
 30
0.0
 10
75.2702
 20
108.7581
 30
0.0
 10
72.7176
 20
99.7516
 30
0.0
 10
72.7176
 20
99.7516
 30
0.0
 10
70.1651
 20
90.7451
 30
0.0
 10
71.3315
 20
81.0912
 30
0.0
 10
75.9558
 20
72.9519
 30
0.0
  0
SPLINE
  5
A4
330
1F
100
AcDbEntity
  8
0
100
AcDbSpline
210
0.0
220
0.0
230
1.0
 70
     8
 71
     3
 72
     8
 73
     4
 74
     0
 42
0.000000001
 43
0.0000000001
 40
0.0
 40
0.0
 40
0.0
 40
0.0
 40
1.0
 40
1.0
 40
1.0
 40
1.0
 10
11.5991
 20
58.695
 30
0.0
 10
22.8558
 20
51.5459
 30
0.0
 10
37.0384
 20
50.8282
 30
0.0
 10
48.9593
 20
56.8045
 30
0.0
  0
SPLINE
  5
A5
330
1F
100
AcDbEntity
  8
0
100
AcDbSpline
210
0.0
220
0.0
230
1.0
 70
     8
 71
     3
 72
     8
 73
     4
 74
     0
 42
0.000000001
 43
0.0000000001
 40
0.0
 40
0.0
 40
0.0
 40
0.0
 40
1.0
 40
1.0
 40
1.0
 40
1.0
 10
68.9445
 20
-61.0002
 30
0.0
 10
68.8455
 20
-61.0009
 30
0.0
 10
68.7466
 20
-61.0034
 30
0.0
 10
68.6477
 20
-61.0078
 30
0.0
  0
SPLINE
  5
A6
330
1F
100
AcDbEntity
  8
0
100
AcDbSpline
210
0.0
220
0.0
230
1.0
 70
    11
 71
     3
 72
    20
 73
    16
 74
     0
 42
0.000000001
 43
0.0000000001
 40
0.0
 40
0.0
 40
0.0
 40
0.0
 40
0.2
 40
0.2
 40
0.2
 40
0.2
 40
0.4
 40
0.4
 40
0.4
 40
0.4
 40
0.6
 40
0.6
 40
0.6
 40
0.6
 40
1.0
 40
1.0
 40
1.0
 40
1.0
 10
75.5
 20
-69.0
 30
0.0
 10
75.5
 20
-65.4102
 30
0.0
 10
72.5899
 20
-62.5
 30
0.0
 10
69.0
 20
-62.5
 30
0.0
 10
69.0
 20
-62.5
 30
0.0
 10
65.4102
 20
-62.5
 30
0.0
 10
62.5
 20
-65.4101
 30
0.0
 10
62.5
 20
-69.0
 30
0.0
 10
62.5
 20
-69.0
 30
0.0
 10
62.5
 20
-72.5898
 30
0.0
 10
65.4101
 20
-75.5
 30
0.0
 10
69.0
 20
-75.5
 30
0.0
 10
69.0
 20
-75.5
 30
0.0
 10
72.5898
 20
-75.5
 30
0.0
 10
75.5
 20
-72.5899
 30
0.0
 10
75.5
 20
-69.0
 30
0.0
  0
SPLINE
  5
A7
330
1F
100
AcDbEntity
  8
0
100
AcDbSpline
210
0.0
220
0.0
230
1.0
 70
     8
 71
     3
 72
    12
 73
     8
 74
     0
 42
0.000000001
 43
0.0000000001
 40
0.0
 40
0.0
 40
0.0
 40
0.0
 40
0.3333333333333333
 40
0.3333333333333333
 40
0.3333333333333333
 40
0.3333333333333333
 40
1.0
 40
1.0
 40
1.0
 40
1.0
 10
-88.6404
 20
-125.6944
 30
0.0
 10
-70.3791
 20
-132.0206
 30
0.0
 10
-50.1884
 20
-129.1633
 30
0.0
 10
-34.3995
 20
-118.0184
 30
0.0
 10
-34.3995
 20
-118.0184
 30
0.0
 10
-18.6105
 20
-106.8735
 30
0.0
 10
-9.1566
 20
-88.8056
 30
0.0
 10
-9.0019
 20
-69.4801
 30
0.0
  0
SPLINE
  5
A8
330
1F
100
AcDbEntity
  8
0
100
AcDbSpline
210
0.0
220
0.0
230
1.0
 70
     8
 71
     3
 72
     8
 73
     4
 74
     0
 42
0.000000001
 43
0.0000000001
 40
0.0
 40
0.0
 40
0.0
 40
0.0
 40
1.0
 40
1.0
 40
1.0
 40
1.0
 10
-62.2547
 20
-73.3012
 30
0.0
 10
-65.9217
 20
-79.052
 30
0.0
 10
-68.0574
 20
-85.6449
 30
0.0
 10
-68.4588
 20
-92.4535
 30
0.0
  0
SPLINE
  5
A9
330
1F
100
AcDbEntity
  8
0
100
AcDbSpline
210
0.0
220
0.0
230
1.0
 70
     8
 71
     3
 72
     8
 73
     4
 74
     0
 42
0.000000001
 43
0.0000000001
 40
0.0
 40
0.0
 40
0.0
 40
0.0
 40
1.0
 40
1.0
 40
1.0
 40
1.0
 10
-88.7761
 20
-123.8631
 30
0.0
 10
-76.9564
 20
-117.6891
 30
0.0
 10
-69.2435
 20
-105.7654
 30
0.0
 10
-68.4588
 20
-92.4535
 30
0.0
  0
SPLINE
  5
AA
330
1F
100
AcDbEntity
  8
0
100
AcDbSpline
210
0.0
220
0.0
230
1.0
 70
     8
 71
     3
 72
     8
 73
     4
 74
     0
 42
0.000000001
 43
0.0000000001
 40
0.0
 40
0.0
 40
0.0
 40
0.0
 40
1.0
 40
1.0
 40
1.0
 40
1.0
 10
88.7761
 20
123.8631
 30
0.0
 10
76.9564
 20
117.6891
 30
0.0
 10
69.2435
 20
105.7654
 30
0.0
 10
68.4588
 20
92.4535
 30
0.0
  0
SPLINE
  5
AB
330
1F
100
AcDbEntity
  8
0
100
AcDbSpline
210
0.0
220
0.0
230
1.0
 70
     8
 71
     3
 72
    12
 73
     8
 74
     0
 42
0.000000001
 43
0.0000000001
 40
0.0
 40
0.0
 40
0.0
 40
0.0
 40
0.3333333333333333
 40
0.3333333333333333
 40
0.3333333333333333
 40
0.3333333333333333
 40
1.0
 40
1.0
 40
1.0
 40
1.0
 10
103.6503
 20
25.2819
 30
0.0
 10
103.8545
 20
34.6409
 30
0.0
 10
100.2964
 20
43.6907
 30
0.0
 10
93.7729
 20
50.4045
 30
0.0
 10
93.7729
 20
50.4045
 30
0.0
 10
87.2494
 20
57.1184
 30
0.0
 10
78.3057
 20
60.9352
 30
0.0
 10
68.9447
 20
61.0002
 30
0.0
  0
SPLINE
  5
AC
330
1F
100
AcDbEntity
  8
0
100
AcDbSpline
210
0.0
220
0.0
230
1.0
 70
     8
 71
     3
 72
     8
 73
     4
 74
     0
 42
0.000000001
 43
0.0000000001
 40
0.0
 40
0.0
 40
0.0
 40
0.0
 40
1.0
 40
1.0
 40
1.0
 40
1.0
 10
106.6248
 20
24.4418
 30
0.0
 10
107.1878
 20
37.7649
 30
0.0
 10
100.7181
 20
50.4063
 30
0.0
 10
89.5821
 20
57.7419
 30
0.0
  0
SPLINE
  5
AD
330
1F
100
AcDbEntity
  8
0
100
AcDbSpline
210
0.0
220
0.0
230
1.0
 70
     8
 71
     3
 72
     8
 73
     4
 74
     0
 42
0.000000001
 43
0.0000000001
 40
0.0
 40
0.0
 40
0.0
 40
0.0
 40
1.0
 40
1.0
 40
1.0
 40
1.0
 10
62.2547
 20
73.3012
 30
0.0
 10
62.2015
 20
73.2178
 30
0.0
 10
62.1498
 20
73.1333
 30
0.0
 10
62.0997
 20
73.048
 30
0.0
  0
SPLINE
  5
AE
330
1F
100
AcDbEntity
  8
0
100
AcDbSpline
210
0.0
220
0.0
230
1.0
 70
     8
 71
     3
 72
    12
 73
     8
 74
     0
 42
0.000000001
 43
0.0000000001
 40
0.0
 40
0.0
 40
0.0
 40
0.0
 40
0.3333333333333333
 40
0.3333333333333333
 40
0.3333333333333333
 40
0.3333333333333333
 40
1.0
 40
1.0
 40
1.0
 40
1.0
 10
-89.5358
 20
-120.8671
 30
0.0
 10
-81.3286
 20
-116.3645
 30
0.0
 10
-75.2703
 20
-108.7581
 30
0.0
 10
-72.7177
 20
-99.7517
 30
0.0
 10
-72.7177
 20
-99.7517
 30
0.0
 10
-70.1651
 20
-90.7453
 30
0.0
 10
-71.3315
 20
-81.0913
 30
0.0
 10
-75.9557
 20
-72.952
 30
0.0
  0
SPLINE
  5
AF
330
1F
100
AcDbEntity
  8
0
100
AcDbSpline
210
0.0
220
0.0
230
1.0
 70
     8
 71
     3
 72
     8
 73
     4
 74
     0
 42
0.000000001
 43
0.0000000001
 40
0.0
 40
0.0
 40
0.0
 40
0.0
 40
1.0
 40
1.0
 40
1.0
 40
1.0
 10
76.0976
 20
72.691
 30
0.0
 10
76.052
 20
72.7788
 30
0.0
 10
76.0047
 20
72.8658
 30
0.0
 10
75.9558
 20
72.9519
 30
0.0
  0
SPLINE
  5
B0
330
1F
100
AcDbEntity
  8
0
100
AcDbSpline
210
0.0
220
0.0
230
1.0
 70
     8
 71
     3
 72
     8
 73
     4
 74
     0
 42
0.000000001
 43
0.0000000001
 40
0.0
 40
0.0
 40
0.0
 40
0.0
 40
1.0
 40
1.0
 40
1.0
 40
1.0
 10
-99.4148
 20
-120.7198
 30
0.0
 10
-96.3777
 20
-122.5058
 30
0.0
 10
-92.6248
 20
-122.5618
 30
0.0
 10
-89.5358
 20
-120.8671
 30
0.0
  0
SPLINE
  5
B1
330
1F
100
AcDbEntity
  8
0
100
AcDbSpline
210
0.0
220
0.0
230
1.0
 70
     8
 71
     3
 72
    12
 73
     8
 74
     0
 42
0.000000001
 43
0.0000000001
 40
0.0
 40
0.0
 40
0.0
 40
0.0
 40
0.3333333333333333
 40
0.3333333333333333
 40
0.3333333333333333
 40
0.3333333333333333
 40
1.0
 40
1.0
 40
1.0
 40
1.0
 10
88.6404
 20
125.6944
 30
0.0
 10
70.3791
 20
132.0206
 30
0.0
 10
50.1884
 20
129.1633
 30
0.0
 10
34.3995
 20
118.0184
 30
0.0
 10
34.3995
 20
118.0184
 30
0.0
 10
18.6105
 20
106.8735
 30
0.0
 10
9.1566
 20
88.8056
 30
0.0
 10
9.0019
 20
69.4801
 30
0.0
  0
SPLINE
  5
B2
330
1F
100
AcDbEntity
  8
0
100
AcDbSpline
210
0.0
220
0.0
230
1.0
 70
     8
 71
     3
 72
    12
 73
     8
 74
     0
 42
0.000000001
 43
0.0000000001
 40
0.0
 40
0.0
 40
0.0
 40
0.0
 40
0.3333333333333333
 40
0.3333333333333333
 40
0.3333333333333333
 40
0.3333333333333333
 40
1.0
 40
1.0
 40
1.0
 40
1.0
 10
108.2786
 20
23.6437
 30
0.0
 10
122.8879
 20
36.2954
 30
0.0
 10
130.5087
 20
55.2095
 30
0.0
 10
128.7515
 20
74.4556
 30
0.0
 10
128.7515
 20
74.4556
 30
0.0
 10
126.9942
 20
93.7016
 30
0.0
 10
116.0741
 20
110.9229
 30
0.0
 10
99.4151
 20
120.7196
 30
0.0
  0
SPLINE
  5
B3
330
1F
100
AcDbEntity
  8
0
100
AcDbSpline
210
0.0
220
0.0
230
1.0
 70
     8
 71
     3
 72
     8
 73
     4
 74
     0
 42
0.000000001
 43
0.0000000001
 40
0.0
 40
0.0
 40
0.0
 40
0.0
 40
1.0
 40
1.0
 40
1.0
 40
1.0
 10
98.5833
 20
16.8001
 30
0.0
 10
101.6486
 20
18.5373
 30
0.0
 10
103.5735
 20
21.7594
 30
0.0
 10
103.6503
 20
25.2819
 30
0.0
  0
SPLINE
  5
B4
330
1F
100
AcDbEntity
  8
0
100
AcDbSpline
210
0.0
220
0.0
230
1.0
 70
     8
 71
     3
 72
     8
 73
     4
 74
     0
 42
0.000000001
 43
0.0000000001
 40
0.0
 40
0.0
 40
0.0
 40
0.0
 40
1.0
 40
1.0
 40
1.0
 40
1.0
 10
99.4148
 20
120.7198
 30
0.0
 10
96.3777
 20
122.5058
 30
0.0
 10
92.6248
 20
122.5618
 30
0.0
 10
89.5358
 20
120.8671
 30
0.0
  0
SPLINE
  5
B5
330
1F
100
AcDbEntity
  8
0
100
AcDbSpline
210
0.0
220
0.0
230
1.0
 70
     8
 71
     3
 72
     8
 73
     4
 74
     0
 42
0.000000001
 43
0.0000000001
 40
0.0
 40
0.0
 40
0.0
 40
0.0
 40
1.0
 40
1.0
 40
1.0
 40
1.0
 10
9.0019
 20
69.4801
 30
0.0
 10
8.9737
 20
65.9569
 30
0.0
 10
10.8017
 20
62.6788
 30
0.0
 10
13.8139
 20
60.851
 30
0.0
  0
SPLINE
  5
B6
330
1F
100
AcDbEntity
  8
0
100
AcDbSpline
210
0.0
220
0.0
230
1.0
 70
     8
 71
     3
 72
     8
 73
     4
 74
     0
 42
0.000000001
 43
0.0000000001
 40
0.0
 40
0.0
 40
0.0
 40
0.0
 40
1.0
 40
1.0
 40
1.0
 40
1.0
 10
62.2547
 20
73.3012
 30
0.0
 10
65.9217
 20
79.052
 30
0.0
 10
68.0574
 20
85.6449
 30
0.0
 10
68.4588
 20
92.4535
 30
0.0
  0
SPLINE
  5
B7
330
1F
100
AcDbEntity
  8
0
100
AcDbSpline
210
0.0
220
0.0
230
1.0
 70
     8
 71
     3
 72
     8
 73
     4
 74
     0
 42
0.000000001
 43
0.0000000001
 40
0.0
 40
0.0
 40
0.0
 40
0.0
 40
1.0
 40
1.0
 40
1.0
 40
1.0
 10
76.0976
 20
72.691
 30
0.0
 10
79.2444
 20
66.6399
 30
0.0
 10
83.8862
 20
61.4939
 30
0.0
 10
89.5819
 20
57.742
 30
0.0
  0
SPLINE
  5
B8
330
1F
100
AcDbEntity
  8
0
100
AcDbSpline
210
0.0
220
0.0
230
1.0
 70
     8
 71
     3
 72
     8
 73
     4
 74
     0
 42
0.000000001
 43
0.0000000001
 40
0.0
 40
0.0
 40
0.0
 40
0.0
 40
1.0
 40
1.0
 40
1.0
 40
1.0
 10
68.6477
 20
61.0078
 30
0.0
 10
61.8339
 20
61.3081
 30
0.0
 10
55.0564
 20
59.8612
 30
0.0
 10
48.9593
 20
56.8045
 30
0.0
  0
SPLINE
  5
B9
330
1F
100
AcDbEntity
  8
0
100
AcDbSpline
210
0.0
220
0.0
230
1.0
 70
     8
 71
     3
 72
    12
 73
     8
 74
     0
 42
0.000000001
 43
0.0000000001
 40
0.0
 40
0.0
 40
0.0
 40
0.0
 40
0.3333333333333333
 40
0.3333333333333333
 40
0.3333333333333333
 40
0.3333333333333333
 40
1.0
 40
1.0
 40
1.0
 40
1.0
 10
-88.7761
 20
-123.8631
 30
0.0
 10
-89.1299
 20
-124.0479
 30
0.0
 10
-89.3399
 20
-124.4253
 30
0.0
 10
-89.3104
 20
-124.8233
 30
0.0
 10
-89.3104
 20
-124.8233
 30
0.0
 10
-89.2809
 20
-125.2214
 30
0.0
 10
-89.0176
 20
-125.5637
 30
0.0
 10
-88.6404
 20
-125.6944
 30
0.0
  0
SPLINE
  5
BA
330
1F
100
AcDbEntity
  8
0
100
AcDbSpline
210
0.0
220
0.0
230
1.0
 70
     8
 71
     3
 72
    12
 73
     8
 74
     0
 42
0.000000001
 43
0.0000000001
 40
0.0
 40
0.0
 40
0.0
 40
0.0
 40
0.3333333333333333
 40
0.3333333333333333
 40
0.3333333333333333
 40
0.3333333333333333
 40
1.0
 40
1.0
 40
1.0
 40
1.0
 10
-106.6248
 20
-24.4418
 30
0.0
 10
-106.6079
 20
-24.0431
 30
0.0
 10
-106.8298
 20
-23.6725
 30
0.0
 10
-107.1892
 20
-23.499
 30
0.0
 10
-107.1892
 20
-23.499
 30
0.0
 10
-107.5487
 20
-23.3256
 30
0.0
 10
-107.9768
 20
-23.3824
 30
0.0
 10
-108.2785
 20
-23.6437
 30
0.0
  0
SPLINE
  5
BB
330
1F
100
AcDbEntity
  8
0
100
AcDbSpline
210
0.0
220
0.0
230
1.0
 70
     8
 71
     3
 72
    12
 73
     8
 74
     0
 42
0.000000001
 43
0.0000000001
 40
0.0
 40
0.0
 40
0.0
 40
0.0
 40
0.3333333333333333
 40
0.3333333333333333
 40
0.3333333333333333
 40
0.3333333333333333
 40
1.0
 40
1.0
 40
1.0
 40
1.0
 10
-108.2786
 20
-23.6437
 30
0.0
 10
-122.8879
 20
-36.2954
 30
0.0
 10
-130.5087
 20
-55.2096
 30
0.0
 10
-128.7514
 20
-74.4557
 30
0.0
 10
-128.7514
 20
-74.4557
 30
0.0
 10
-126.9941
 20
-93.7018
 30
0.0
 10
-116.0739
 20
-110.9231
 30
0.0
 10
-99.4148
 20
-120.7198
 30
0.0
  0
SPLINE
  5
BC
330
1F
100
AcDbEntity
  8
0
100
AcDbSpline
210
0.0
220
0.0
230
1.0
 70
     8
 71
     3
 72
     8
 73
     4
 74
     0
 42
0.000000001
 43
0.0000000001
 40
0.0
 40
0.0
 40
0.0
 40
0.0
 40
1.0
 40
1.0
 40
1.0
 40
1.0
 10
-106.6248
 20
-24.4418
 30
0.0
 10
-107.1878
 20
-37.765
 30
0.0
 10
-100.718
 20
-50.4064
 30
0.0
 10
-89.5819
 20
-57.742
 30
0.0
  0
SPLINE
  5
BD
330
1F
100
AcDbEntity
  8
0
100
AcDbSpline
210
0.0
220
0.0
230
1.0
 70
     8
 71
     3
 72
    12
 73
     8
 74
     0
 42
0.000000001
 43
0.0000000001
 40
0.0
 40
0.0
 40
0.0
 40
0.0
 40
0.3333333333333333
 40
0.3333333333333333
 40
0.3333333333333333
 40
0.3333333333333333
 40
1.0
 40
1.0
 40
1.0
 40
1.0
 10
-103.6503
 20
-25.2819
 30
0.0
 10
-103.8545
 20
-34.6409
 30
0.0
 10
-100.2964
 20
-43.6908
 30
0.0
 10
-93.7729
 20
-50.4046
 30
0.0
 10
-93.7729
 20
-50.4046
 30
0.0
 10
-87.2493
 20
-57.1185
 30
0.0
 10
-78.3055
 20
-60.9353
 30
0.0
 10
-68.9445
 20
-61.0002
 30
0.0
  0
SPLINE
  5
BE
330
1F
100
AcDbEntity
  8
0
100
AcDbSpline
210
0.0
220
0.0
230
1.0
 70
     8
 71
     3
 72
    12
 73
     8
 74
     0
 42
0.000000001
 43
0.0000000001
 40
0.0
 40
0.0
 40
0.0
 40
0.0
 40
0.3333333333333333
 40
0.3333333333333333
 40
0.3333333333333333
 40
0.3333333333333333
 40
1.0
 40
1.0
 40
1.0
 40
1.0
 10
-10.081
 20
-57.6619
 30
0.0
 10
-13.733
 20
-38.684
 30
0.0
 10
-26.3028
 20
-22.627
 30
0.0
 10
-43.8491
 20
-14.5259
 30
0.0
 10
-43.8491
 20
-14.5259
 30
0.0
 10
-61.3953
 20
-6.4247
 30
0.0
 10
-81.7695
 20
-7.2713
 30
0.0
 10
-98.5833
 20
-16.8001
 30
0.0
  0
SPLINE
  5
BF
330
1F
100
AcDbEntity
  8
0
100
AcDbSpline
210
0.0
220
0.0
230
1.0
 70
     8
 71
     3
 72
    12
 73
     8
 74
     0
 42
0.000000001
 43
0.0000000001
 40
0.0
 40
0.0
 40
0.0
 40
0.0
 40
0.3333333333333333
 40
0.3333333333333333
 40
0.3333333333333333
 40
0.3333333333333333
 40
1.0
 40
1.0
 40
1.0
 40
1.0
 10
17.503
 20
-121.8597
 30
0.0
 10
17.9284
 20
-121.9148
 30
0.0
 10
18.3416
 20
-121.6926
 30
0.0
 10
18.53
 20
-121.3072
 30
0.0
 10
18.53
 20
-121.3072
 30
0.0
 10
18.7184
 20
-120.9219
 30
0.0
 10
18.64
 20
-120.4593
 30
0.0
 10
18.3353
 20
-120.1575
 30
0.0
  0
SPLINE
  5
C0
330
1F
100
AcDbEntity
  8
0
100
AcDbSpline
210
0.0
220
0.0
230
1.0
 70
     8
 71
     3
 72
    12
 73
     8
 74
     0
 42
0.000000001
 43
0.0000000001
 40
0.0
 40
0.0
 40
0.0
 40
0.0
 40
0.3333333333333333
 40
0.3333333333333333
 40
0.3333333333333333
 40
0.3333333333333333
 40
1.0
 40
1.0
 40
1.0
 40
1.0
 10
0.9452
 20
-92.5063
 30
0.0
 10
0.806
 20
-92.1032
 30
0.0
 10
0.4265
 20
-91.8328
 30
0.0
 10
0.0
 20
-91.8328
 30
0.0
 10
0.0
 20
-91.8328
 30
0.0
 10
-0.4265
 20
-91.8328
 30
0.0
 10
-0.806
 20
-92.1032
 30
0.0
 10
-0.9452
 20
-92.5063
 30
0.0
  0
SPLINE
  5
C1
330
1F
100
AcDbEntity
  8
0
100
AcDbSpline
210
0.0
220
0.0
230
1.0
 70
     8
 71
     3
 72
    12
 73
     8
 74
     0
 42
0.000000001
 43
0.0000000001
 40
0.0
 40
0.0
 40
0.0
 40
0.0
 40
0.3333333333333333
 40
0.3333333333333333
 40
0.3333333333333333
 40
0.3333333333333333
 40
1.0
 40
1.0
 40
1.0
 40
1.0
 10
-18.3353
 20
-120.1575
 30
0.0
 10
-18.64
 20
-120.4593
 30
0.0
 10
-18.7184
 20
-120.9219
 30
0.0
 10
-18.53
 20
-121.3072
 30
0.0
 10
-18.53
 20
-121.3072
 30
0.0
 10
-18.3416
 20
-121.6926
 30
0.0
 10
-17.9284
 20
-121.9148
 30
0.0
 10
-17.503
 20
-121.8597
 30
0.0
  0
SPLINE
  5
C2
330
1F
100
AcDbEntity
  8
0
100
AcDbSpline
210
0.0
220
0.0
230
1.0
 70
     8
 71
     3
 72
    12
 73
     8
 74
     0
 42
0.000000001
 43
0.0000000001
 40
0.0
 40
0.0
 40
0.0
 40
0.0
 40
0.3333333333333333
 40
0.3333333333333333
 40
0.3333333333333333
 40
0.3333333333333333
 40
1.0
 40
1.0
 40
1.0
 40
1.0
 10
91.7062
 20
0.9188
 30
0.0
 10
91.3389
 20
0.7611
 30
0.0
 10
91.1009
 20
0.3997
 30
0.0
 10
91.1009
 20
0.0
 30
0.0
 10
91.1009
 20
0.0
 30
0.0
 10
91.1009
 20
-0.3997
 30
0.0
 10
91.3389
 20
-0.7611
 30
0.0
 10
91.7062
 20
-0.9188
 30
0.0
  0
SPLINE
  5
C3
330
1F
100
AcDbEntity
  8
0
100
AcDbSpline
210
0.0
220
0.0
230
1.0
 70
     8
 71
     3
 72
    12
 73
     8
 74
     0
 42
0.000000001
 43
0.0000000001
 40
0.0
 40
0.0
 40
0.0
 40
0.0
 40
0.3333333333333333
 40
0.3333333333333333
 40
0.3333333333333333
 40
0.3333333333333333
 40
1.0
 40
1.0
 40
1.0
 40
1.0
 10
103.1839
 20
-5.8486
 30
0.0
 10
103.5166
 20
-5.9915
 30
0.0
 10
103.9006
 20
-5.9434
 30
0.0
 10
104.1878
 20
-5.7228
 30
0.0
 10
104.1878
 20
-5.7228
 30
0.0
 10
104.4749
 20
-5.5021
 30
0.0
 10
104.6204
 20
-5.1435
 30
0.0
 10
104.568
 20
-4.7852
 30
0.0
  0
SPLINE
  5
C4
330
1F
100
AcDbEntity
  8
0
100
AcDbSpline
210
0.0
220
0.0
230
1.0
 70
     8
 71
     3
 72
    12
 73
     8
 74
     0
 42
0.000000001
 43
0.0000000001
 40
0.0
 40
0.0
 40
0.0
 40
0.0
 40
0.3333333333333333
 40
0.3333333333333333
 40
0.3333333333333333
 40
0.3333333333333333
 40
1.0
 40
1.0
 40
1.0
 40
1.0
 10
104.568
 20
4.7852
 30
0.0
 10
104.6204
 20
5.1435
 30
0.0
 10
104.4749
 20
5.5021
 30
0.0
 10
104.1878
 20
5.7228
 30
0.0
 10
104.1878
 20
5.7228
 30
0.0
 10
103.9006
 20
5.9434
 30
0.0
 10
103.5166
 20
5.9915
 30
0.0
 10
103.1839
 20
5.8486
 30
0.0
  0
SPLINE
  5
C5
330
1F
100
AcDbEntity
  8
0
100
AcDbSpline
210
0.0
220
0.0
230
1.0
 70
     8
 71
     3
 72
    12
 73
     8
 74
     0
 42
0.000000001
 43
0.0000000001
 40
0.0
 40
0.0
 40
0.0
 40
0.0
 40
0.3333333333333333
 40
0.3333333333333333
 40
0.3333333333333333
 40
0.3333333333333333
 40
1.0
 40
1.0
 40
1.0
 40
1.0
 10
-17.503
 20
121.8597
 30
0.0
 10
-17.9284
 20
121.9148
 30
0.0
 10
-18.3416
 20
121.6926
 30
0.0
 10
-18.53
 20
121.3072
 30
0.0
 10
-18.53
 20
121.3072
 30
0.0
 10
-18.7184
 20
120.9219
 30
0.0
 10
-18.64
 20
120.4593
 30
0.0
 10
-18.3353
 20
120.1575
 30
0.0
  0
SPLINE
  5
C6
330
1F
100
AcDbEntity
  8
0
100
AcDbSpline
210
0.0
220
0.0
230
1.0
 70
     8
 71
     3
 72
    12
 73
     8
 74
     0
 42
0.000000001
 43
0.0000000001
 40
0.0
 40
0.0
 40
0.0
 40
0.0
 40
0.3333333333333333
 40
0.3333333333333333
 40
0.3333333333333333
 40
0.3333333333333333
 40
1.0
 40
1.0
 40
1.0
 40
1.0
 10
-0.9452
 20
92.5063
 30
0.0
 10
-0.806
 20
92.1032
 30
0.0
 10
-0.4265
 20
91.8328
 30
0.0
 10
0.0
 20
91.8328
 30
0.0
 10
0.0
 20
91.8328
 30
0.0
 10
0.4265
 20
91.8328
 30
0.0
 10
0.806
 20
92.1032
 30
0.0
 10
0.9452
 20
92.5063
 30
0.0
  0
SPLINE
  5
C7
330
1F
100
AcDbEntity
  8
0
100
AcDbSpline
210
0.0
220
0.0
230
1.0
 70
     8
 71
     3
 72
    12
 73
     8
 74
     0
 42
0.000000001
 43
0.0000000001
 40
0.0
 40
0.0
 40
0.0
 40
0.0
 40
0.3333333333333333
 40
0.3333333333333333
 40
0.3333333333333333
 40
0.3333333333333333
 40
1.0
 40
1.0
 40
1.0
 40
1.0
 10
18.3353
 20
120.1575
 30
0.0
 10
18.64
 20
120.4593
 30
0.0
 10
18.7184
 20
120.9219
 30
0.0
 10
18.53
 20
121.3072
 30
0.0
 10
18.53
 20
121.3072
 30
0.0
 10
18.3416
 20
121.6925
 30
0.0
 10
17.9284
 20
121.9148
 30
0.0
 10
17.503
 20
121.8597
 30
0.0
  0
SPLINE
  5
C8
330
1F
100
AcDbEntity
  8
0
100
AcDbSpline
210
0.0
220
0.0
230
1.0
 70
     8
 71
     3
 72
    12
 73
     8
 74
     0
 42
0.000000001
 43
0.0000000001
 40
0.0
 40
0.0
 40
0.0
 40
0.0
 40
0.3333333333333333
 40
0.3333333333333333
 40
0.3333333333333333
 40
0.3333333333333333
 40
1.0
 40
1.0
 40
1.0
 40
1.0
 10
-91.7062
 20
-0.9188
 30
0.0
 10
-91.3389
 20
-0.7611
 30
0.0
 10
-91.1009
 20
-0.3997
 30
0.0
 10
-91.1009
 20
0.0
 30
0.0
 10
-91.1009
 20
0.0
 30
0.0
 10
-91.1009
 20
0.3997
 30
0.0
 10
-91.3389
 20
0.7611
 30
0.0
 10
-91.7062
 20
0.9188
 30
0.0
  0
SPLINE
  5
C9
330
1F
100
AcDbEntity
  8
0
100
AcDbSpline
210
0.0
220
0.0
230
1.0
 70
     8
 71
     3
 72
    12
 73
     8
 74
     0
 42
0.000000001
 43
0.0000000001
 40
0.0
 40
0.0
 40
0.0
 40
0.0
 40
0.3333333333333333
 40
0.3333333333333333
 40
0.3333333333333333
 40
0.3333333333333333
 40
1.0
 40
1.0
 40
1.0
 40
1.0
 10
-104.568
 20
-4.7852
 30
0.0
 10
-104.6204
 20
-5.1435
 30
0.0
 10
-104.4749
 20
-5.5021
 30
0.0
 10
-104.1878
 20
-5.7228
 30
0.0
 10
-104.1878
 20
-5.7228
 30
0.0
 10
-103.9006
 20
-5.9434
 30
0.0
 10
-103.5166
 20
-5.9915
 30
0.0
 10
-103.1839
 20
-5.8486
 30
0.0
  0
SPLINE
  5
CA
330
1F
100
AcDbEntity
  8
0
100
AcDbSpline
210
0.0
220
0.0
230
1.0
 70
     8
 71
     3
 72
    12
 73
     8
 74
     0
 42
0.000000001
 43
0.0000000001
 40
0.0
 40
0.0
 40
0.0
 40
0.0
 40
0.3333333333333333
 40
0.3333333333333333
 40
0.3333333333333333
 40
0.3333333333333333
 40
1.0
 40
1.0
 40
1.0
 40
1.0
 10
-103.1839
 20
5.8486
 30
0.0
 10
-103.5166
 20
5.9915
 30
0.0
 10
-103.9006
 20
5.9434
 30
0.0
 10
-104.1878
 20
5.7228
 30
0.0
 10
-104.1878
 20
5.7228
 30
0.0
 10
-104.4749
 20
5.5021
 30
0.0
 10
-104.6204
 20
5.1435
 30
0.0
 10
-104.568
 20
4.7852
 30
0.0
  0
SPLINE
  5
CB
330
1F
100
AcDbEntity
  8
0
100
AcDbSpline
210
0.0
220
0.0
230
1.0
 70
     8
 71
     3
 72
     8
 73
     4
 74
     0
 42
0.000000001
 43
0.0000000001
 40
0.0
 40
0.0
 40
0.0
 40
0.0
 40
1.0
 40
1.0
 40
1.0
 40
1.0
 10
-98.5833
 20
-16.8001
 30
0.0
 10
-101.6486
 20
-18.5373
 30
0.0
 10
-103.5735
 20
-21.7594
 30
0.0
 10
-103.6503
 20
-25.2819
 30
0.0
  0
SPLINE
  5
CC
330
1F
100
AcDbEntity
  8
0
100
AcDbSpline
210
0.0
220
0.0
230
1.0
 70
    11
 71
     3
 72
    20
 73
    16
 74
     0
 42
0.000000001
 43
0.0000000001
 40
0.0
 40
0.0
 40
0.0
 40
0.0
 40
0.2
 40
0.2
 40
0.2
 40
0.2
 40
0.4
 40
0.4
 40
0.4
 40
0.4
 40
0.6
 40
0.6
 40
0.6
 40
0.6
 40
1.0
 40
1.0
 40
1.0
 40
1.0
 10
-62.5
 20
-69.0
 30
0.0
 10
-62.5
 20
-65.4102
 30
0.0
 10
-65.4101
 20
-62.5
 30
0.0
 10
-69.0
 20
-62.5
 30
0.0
 10
-69.0
 20
-62.5
 30
0.0
 10
-72.5898
 20
-62.5
 30
0.0
 10
-75.5
 20
-65.4101
 30
0.0
 10
-75.5
 20
-69.0
 30
0.0
 10
-75.5
 20
-69.0
 30
0.0
 10
-75.5
 20
-72.5898
 30
0.0
 10
-72.5899
 20
-75.5
 30
0.0
 10
-69.0
 20
-75.5
 30
0.0
 10
-69.0
 20
-75.5
 30
0.0
 10
-65.4102
 20
-75.5
 30
0.0
 10
-62.5
 20
-72.5899
 30
0.0
 10
-62.5
 20
-69.0
 30
0.0
  0
SPLINE
  5
CD
330
1F
100
AcDbEntity
  8
0
100
AcDbSpline
210
0.0
220
0.0
230
1.0
 70
     8
 71
     3
 72
     8
 73
     4
 74
     0
 42
0.000000001
 43
0.0000000001
 40
0.0
 40
0.0
 40
0.0
 40
0.0
 40
1.0
 40
1.0
 40
1.0
 40
1.0
 10
-68.6477
 20
-61.0078
 30
0.0
 10
-68.7466
 20
-61.0034
 30
0.0
 10
-68.8455
 20
-61.0009
 30
0.0
 10
-68.9445
 20
-61.0002
 30
0.0
  0
SPLINE
  5
CE
330
1F
100
AcDbEntity
  8
0
100
AcDbSpline
210
0.0
220
0.0
230
1.0
 70
     8
 71
     3
 72
     8
 73
     4
 74
     0
 42
0.000000001
 43
0.0000000001
 40
0.0
 40
0.0
 40
0.0
 40
0.0
 40
1.0
 40
1.0
 40
1.0
 40
1.0
 10
-62.2547
 20
-73.3012
 30
0.0
 10
-62.2015
 20
-73.2178
 30
0.0
 10
-62.1498
 20
-73.1333
 30
0.0
 10
-62.0997
 20
-73.048
 30
0.0
  0
SPLINE
  5
CF
330
1F
100
AcDbEntity
  8
0
100
AcDbSpline
210
0.0
220
0.0
230
1.0
 70
     8
 71
     3
 72
     8
 73
     4
 74
     0
 42
0.000000001
 43
0.0000000001
 40
0.0
 40
0.0
 40
0.0
 40
0.0
 40
1.0
 40
1.0
 40
1.0
 40
1.0
 10
-76.0976
 20
-72.691
 30
0.0
 10
-76.052
 20
-72.7788
 30
0.0
 10
-76.0047
 20
-72.8658
 30
0.0
 10
-75.9558
 20
-72.9519
 30
0.0
  0
SPLINE
  5
D0
330
1F
100
AcDbEntity
  8
0
100
AcDbSpline
210
0.0
220
0.0
230
1.0
 70
     8
 71
     3
 72
     8
 73
     4
 74
     0
 42
0.000000001
 43
0.0000000001
 40
0.0
 40
0.0
 40
0.0
 40
0.0
 40
1.0
 40
1.0
 40
1.0
 40
1.0
 10
-76.0976
 20
-72.691
 30
0.0
 10
-79.2444
 20
-66.6399
 30
0.0
 10
-83.8862
 20
-61.4939
 30
0.0
 10
-89.5819
 20
-57.742
 30
0.0
  0
SPLINE
  5
D1
330
1F
100
AcDbEntity
  8
0
100
AcDbSpline
210
0.0
220
0.0
230
1.0
 70
     8
 71
     3
 72
     8
 73
     4
 74
     0
 42
0.000000001
 43
0.0000000001
 40
0.0
 40
0.0
 40
0.0
 40
0.0
 40
1.0
 40
1.0
 40
1.0
 40
1.0
 10
-9.0019
 20
-69.4801
 30
0.0
 10
-8.9737
 20
-65.9569
 30
0.0
 10
-10.8017
 20
-62.6788
 30
0.0
 10
-13.8138
 20
-60.851
 30
0.0
  0
SPLINE
  5
D2
330
1F
100
AcDbEntity
  8
0
100
AcDbSpline
210
0.0
220
0.0
230
1.0
 70
     8
 71
     3
 72
    12
 73
     8
 74
     0
 42
0.000000001
 43
0.0000000001
 40
0.0
 40
0.0
 40
0.0
 40
0.0
 40
0.3333333333333333
 40
0.3333333333333333
 40
0.3333333333333333
 40
0.3333333333333333
 40
1.0
 40
1.0
 40
1.0
 40
1.0
 10
-11.5991
 20
-58.695
 30
0.0
 10
-11.2622
 20
-58.909
 30
0.0
 10
-10.8303
 20
-58.9022
 30
0.0
 10
-10.5004
 20
-58.6776
 30
0.0
 10
-10.5004
 20
-58.6776
 30
0.0
 10
-10.1704
 20
-58.4531
 30
0.0
 10
-10.0056
 20
-58.0539
 30
0.0
 10
-10.081
 20
-57.6619
 30
0.0
  0
SPLINE
  5
D3
330
1F
100
AcDbEntity
  8
0
100
AcDbSpline
210
0.0
220
0.0
230
1.0
 70
     8
 71
     3
 72
    12
 73
     8
 74
     0
 42
0.000000001
 43
0.0000000001
 40
0.0
 40
0.0
 40
0.0
 40
0.0
 40
0.3333333333333333
 40
0.3333333333333333
 40
0.3333333333333333
 40
0.3333333333333333
 40
1.0
 40
1.0
 40
1.0
 40
1.0
 10
-13.8139
 20
-60.851
 30
0.0
 10
-21.8169
 20
-55.9946
 30
0.0
 10
-31.4334
 20
-54.5511
 30
0.0
 10
-40.5095
 20
-56.8438
 30
0.0
 10
-40.5095
 20
-56.8438
 30
0.0
 10
-49.5856
 20
-59.1364
 30
0.0
 10
-57.363
 20
-64.9736
 30
0.0
 10
-62.0997
 20
-73.048
 30
0.0
  0
SPLINE
  5
D4
330
1F
100
AcDbEntity
  8
0
100
AcDbSpline
210
0.0
220
0.0
230
1.0
 70
     8
 71
     3
 72
     8
 73
     4
 74
     0
 42
0.000000001
 43
0.0000000001
 40
0.0
 40
0.0
 40
0.0
 40
0.0
 40
1.0
 40
1.0
 40
1.0
 40
1.0
 10
-11.5991
 20
-58.695
 30
0.0
 10
-22.8558
 20
-51.5459
 30
0.0
 10
-37.0384
 20
-50.8282
 30
0.0
 10
-48.9593
 20
-56.8045
 30
0.0
  0
SPLINE
  5
D5
330
1F
100
AcDbEntity
  8
0
100
AcDbSpline
210
0.0
220
0.0
230
1.0
 70
     8
 71
     3
 72
     8
 73
     4
 74
     0
 42
0.000000001
 43
0.0000000001
 40
0.0
 40
0.0
 40
0.0
 40
0.0
 40
1.0
 40
1.0
 40
1.0
 40
1.0
 10
-68.6477
 20
-61.0078
 30
0.0
 10
-61.8339
 20
-61.3081
 30
0.0
 10
-55.0564
 20
-59.8612
 30
0.0
 10
-48.9593
 20
-56.8045
 30
0.0
  0
SPLINE
  5
D6
330
1F
100
AcDbEntity
  8
0
100
AcDbSpline
210
0.0
220
0.0
230
1.0
 70
     8
 71
     3
 72
    12
 73
     8
 74
     0
 42
0.000000001
 43
0.0000000001
 40
0.0
 40
0.0
 40
0.0
 40
0.0
 40
0.3333333333333333
 40
0.3333333333333333
 40
0.3333333333333333
 40
0.3333333333333333
 40
1.0
 40
1.0
 40
1.0
 40
1.0
 10
-98.5833
 20
16.8001
 30
0.0
 10
-81.7695
 20
7.2713
 30
0.0
 10
-61.3953
 20
6.4247
 30
0.0
 10
-43.8491
 20
14.5259
 30
0.0
 10
-43.8491
 20
14.5259
 30
0.0
 10
-26.3028
 20
22.627
 30
0.0
 10
-13.733
 20
38.684
 30
0.0
 10
-10.081
 20
57.6619
 30
0.0
  0
SPLINE
  5
D7
330
1F
100
AcDbEntity
  8
0
100
AcDbSpline
210
0.0
220
0.0
230
1.0
 70
     8
 71
     3
 72
    12
 73
     8
 74
     0
 42
0.000000001
 43
0.0000000001
 40
0.0
 40
0.0
 40
0.0
 40
0.0
 40
0.3333333333333333
 40
0.3333333333333333
 40
0.3333333333333333
 40
0.3333333333333333
 40
1.0
 40
1.0
 40
1.0
 40
1.0
 10
-99.4148
 20
120.7198
 30
0.0
 10
-116.0739
 20
110.9231
 30
0.0
 10
-126.9941
 20
93.7018
 30
0.0
 10
-128.7514
 20
74.4557
 30
0.0
 10
-128.7514
 20
74.4557
 30
0.0
 10
-130.5087
 20
55.2096
 30
0.0
 10
-122.8879
 20
36.2954
 30
0.0
 10
-108.2786
 20
23.6437
 30
0.0
  0
SPLINE
  5
D8
330
1F
100
AcDbEntity
  8
0
100
AcDbSpline
210
0.0
220
0.0
230
1.0
 70
     8
 71
     3
 72
     8
 73
     4
 74
     0
 42
0.000000001
 43
0.0000000001
 40
0.0
 40
0.0
 40
0.0
 40
0.0
 40
1.0
 40
1.0
 40
1.0
 40
1.0
 10
-68.4588
 20
92.4535
 30
0.0
 10
-69.2435
 20
105.7654
 30
0.0
 10
-76.9564
 20
117.6891
 30
0.0
 10
-88.7761
 20
123.8631
 30
0.0
  0
SPLINE
  5
D9
330
1F
100
AcDbEntity
  8
0
100
AcDbSpline
210
0.0
220
0.0
230
1.0
 70
     8
 71
     3
 72
    12
 73
     8
 74
     0
 42
0.000000001
 43
0.0000000001
 40
0.0
 40
0.0
 40
0.0
 40
0.0
 40
0.3333333333333333
 40
0.3333333333333333
 40
0.3333333333333333
 40
0.3333333333333333
 40
1.0
 40
1.0
 40
1.0
 40
1.0
 10
-88.6404
 20
125.6944
 30
0.0
 10
-89.0176
 20
125.5637
 30
0.0
 10
-89.2809
 20
125.2214
 30
0.0
 10
-89.3104
 20
124.8233
 30
0.0
 10
-89.3104
 20
124.8233
 30
0.0
 10
-89.3399
 20
124.4253
 30
0.0
 10
-89.1299
 20
124.0479
 30
0.0
 10
-88.7761
 20
123.8631
 30
0.0
  0
SPLINE
  5
DA
330
1F
100
AcDbEntity
  8
0
100
AcDbSpline
210
0.0
220
0.0
230
1.0
 70
     8
 71
     3
 72
     8
 73
     4
 74
     0
 42
0.000000001
 43
0.0000000001
 40
0.0
 40
0.0
 40
0.0
 40
0.0
 40
1.0
 40
1.0
 40
1.0
 40
1.0
 10
-89.5358
 20
120.8671
 30
0.0
 10
-92.6248
 20
122.5618
 30
0.0
 10
-96.3777
 20
122.5058
 30
0.0
 10
-99.4148
 20
120.7198
 30
0.0
  0
SPLINE
  5
DB
330
1F
100
AcDbEntity
  8
0
100
AcDbSpline
210
0.0
220
0.0
230
1.0
 70
     8
 71
     3
 72
    12
 73
     8
 74
     0
 42
0.000000001
 43
0.0000000001
 40
0.0
 40
0.0
 40
0.0
 40
0.0
 40
0.3333333333333333
 40
0.3333333333333333
 40
0.3333333333333333
 40
0.3333333333333333
 40
1.0
 40
1.0
 40
1.0
 40
1.0
 10
-9.0019
 20
69.4801
 30
0.0
 10
-9.1566
 20
88.8056
 30
0.0
 10
-18.6105
 20
106.8735
 30
0.0
 10
-34.3995
 20
118.0184
 30
0.0
 10
-34.3995
 20
118.0184
 30
0.0
 10
-50.1884
 20
129.1633
 30
0.0
 10
-70.3791
 20
132.0206
 30
0.0
 10
-88.6404
 20
125.6944
 30
0.0
  0
SPLINE
  5
DC
330
1F
100
AcDbEntity
  8
0
100
AcDbSpline
210
0.0
220
0.0
230
1.0
 70
     8
 71
     3
 72
    12
 73
     8
 74
     0
 42
0.000000001
 43
0.0000000001
 40
0.0
 40
0.0
 40
0.0
 40
0.0
 40
0.3333333333333333
 40
0.3333333333333333
 40
0.3333333333333333
 40
0.3333333333333333
 40
1.0
 40
1.0
 40
1.0
 40
1.0
 10
-10.081
 20
57.6619
 30
0.0
 10
-10.0056
 20
58.0539
 30
0.0
 10
-10.1704
 20
58.4531
 30
0.0
 10
-10.5004
 20
58.6776
 30
0.0
 10
-10.5004
 20
58.6776
 30
0.0
 10
-10.8303
 20
58.9022
 30
0.0
 10
-11.2622
 20
58.909
 30
0.0
 10
-11.5991
 20
58.695
 30
0.0
  0
SPLINE
  5
DD
330
1F
100
AcDbEntity
  8
0
100
AcDbSpline
210
0.0
220
0.0
230
1.0
 70
     8
 71
     3
 72
     8
 73
     4
 74
     0
 42
0.000000001
 43
0.0000000001
 40
0.0
 40
0.0
 40
0.0
 40
0.0
 40
1.0
 40
1.0
 40
1.0
 40
1.0
 10
-13.8139
 20
60.851
 30
0.0
 10
-10.8017
 20
62.6788
 30
0.0
 10
-8.9737
 20
65.9568
 30
0.0
 10
-9.0019
 20
69.4801
 30
0.0
  0
SPLINE
  5
DE
330
1F
100
AcDbEntity
  8
0
100
AcDbSpline
210
0.0
220
0.0
230
1.0
 70
     8
 71
     3
 72
     8
 73
     4
 74
     0
 42
0.000000001
 43
0.0000000001
 40
0.0
 40
0.0
 40
0.0
 40
0.0
 40
1.0
 40
1.0
 40
1.0
 40
1.0
 10
-48.9593
 20
56.8045
 30
0.0
 10
-37.0384
 20
50.8282
 30
0.0
 10
-22.8558
 20
51.5459
 30
0.0
 10
-11.5991
 20
58.695
 30
0.0
  0
SPLINE
  5
DF
330
1F
100
AcDbEntity
  8
0
100
AcDbSpline
210
0.0
220
0.0
230
1.0
 70
     8
 71
     3
 72
    12
 73
     8
 74
     0
 42
0.000000001
 43
0.0000000001
 40
0.0
 40
0.0
 40
0.0
 40
0.0
 40
0.3333333333333333
 40
0.3333333333333333
 40
0.3333333333333333
 40
0.3333333333333333
 40
1.0
 40
1.0
 40
1.0
 40
1.0
 10
-62.0997
 20
73.048
 30
0.0
 10
-57.363
 20
64.9736
 30
0.0
 10
-49.5856
 20
59.1364
 30
0.0
 10
-40.5095
 20
56.8438
 30
0.0
 10
-40.5095
 20
56.8438
 30
0.0
 10
-31.4334
 20
54.5511
 30
0.0
 10
-21.8169
 20
55.9946
 30
0.0
 10
-13.8139
 20
60.851
 30
0.0
  0
SPLINE
  5
E0
330
1F
100
AcDbEntity
  8
0
100
AcDbSpline
210
0.0
220
0.0
230
1.0
 70
     8
 71
     3
 72
    12
 73
     8
 74
     0
 42
0.000000001
 43
0.0000000001
 40
0.0
 40
0.0
 40
0.0
 40
0.0
 40
0.3333333333333333
 40
0.3333333333333333
 40
0.3333333333333333
 40
0.3333333333333333
 40
1.0
 40
1.0
 40
1.0
 40
1.0
 10
-108.2786
 20
23.6437
 30
0.0
 10
-107.9768
 20
23.3824
 30
0.0
 10
-107.5487
 20
23.3256
 30
0.0
 10
-107.1892
 20
23.499
 30
0.0
 10
-107.1892
 20
23.499
 30
0.0
 10
-106.8298
 20
23.6725
 30
0.0
 10
-106.608
 20
24.0431
 30
0.0
 10
-106.6248
 20
24.4418
 30
0.0
  0
SPLINE
  5
E1
330
1F
100
AcDbEntity
  8
0
100
AcDbSpline
210
0.0
220
0.0
230
1.0
 70
     8
 71
     3
 72
     8
 73
     4
 74
     0
 42
0.000000001
 43
0.0000000001
 40
0.0
 40
0.0
 40
0.0
 40
0.0
 40
1.0
 40
1.0
 40
1.0
 40
1.0
 10
-48.9593
 20
56.8045
 30
0.0
 10
-55.0564
 20
59.8612
 30
0.0
 10
-61.8339
 20
61.3081
 30
0.0
 10
-68.6477
 20
61.0078
 30
0.0
  0
SPLINE
  5
E2
330
1F
100
AcDbEntity
  8
0
100
AcDbSpline
210
0.0
220
0.0
230
1.0
 70
     8
 71
     3
 72
     8
 73
     4
 74
     0
 42
0.000000001
 43
0.0000000001
 40
0.0
 40
0.0
 40
0.0
 40
0.0
 40
1.0
 40
1.0
 40
1.0
 40
1.0
 10
-89.5819
 20
57.742
 30
0.0
 10
-83.8862
 20
61.4939
 30
0.0
 10
-79.2444
 20
66.6399
 30
0.0
 10
-76.0976
 20
72.691
 30
0.0
  0
SPLINE
  5
E3
330
1F
100
AcDbEntity
  8
0
100
AcDbSpline
210
0.0
220
0.0
230
1.0
 70
     8
 71
     3
 72
    12
 73
     8
 74
     0
 42
0.000000001
 43
0.0000000001
 40
0.0
 40
0.0
 40
0.0
 40
0.0
 40
0.3333333333333333
 40
0.3333333333333333
 40
0.3333333333333333
 40
0.3333333333333333
 40
1.0
 40
1.0
 40
1.0
 40
1.0
 10
106.6248
 20
24.4418
 30
0.0
 10
106.6079
 20
24.0431
 30
0.0
 10
106.8298
 20
23.6725
 30
0.0
 10
107.1892
 20
23.499
 30
0.0
 10
107.1892
 20
23.499
 30
0.0
 10
107.5487
 20
23.3256
 30
0.0
 10
107.9768
 20
23.3824
 30
0.0
 10
108.2786
 20
23.6437
 30
0.0
  0
SPLINE
  5
E4
330
1F
100
AcDbEntity
  8
0
100
AcDbSpline
210
0.0
220
0.0
230
1.0
 70
     8
 71
     3
 72
    12
 73
     8
 74
     0
 42
0.000000001
 43
0.0000000001
 40
0.0
 40
0.0
 40
0.0
 40
0.0
 40
0.3333333333333333
 40
0.3333333333333333
 40
0.3333333333333333
 40
0.3333333333333333
 40
1.0
 40
1.0
 40
1.0
 40
1.0
 10
88.7761
 20
123.8631
 30
0.0
 10
89.1298
 20
124.0479
 30
0.0
 10
89.3399
 20
124.4253
 30
0.0
 10
89.3104
 20
124.8233
 30
0.0
 10
89.3104
 20
124.8233
 30
0.0
 10
89.2809
 20
125.2214
 30
0.0
 10
89.0176
 20
125.5637
 30
0.0
 10
88.6405
 20
125.6944
 30
0.0
  0
SPLINE
  5
E5
330
1F
100
AcDbEntity
  8
0
100
AcDbSpline
210
0.0
220
0.0
230
1.0
 70
     8
 71
     3
 72
    12
 73
     8
 74
     0
 42
0.000000001
 43
0.0000000001
 40
0.0
 40
0.0
 40
0.0
 40
0.0
 40
0.3333333333333333
 40
0.3333333333333333
 40
0.3333333333333333
 40
0.3333333333333333
 40
1.0
 40
1.0
 40
1.0
 40
1.0
 10
11.5991
 20
58.695
 30
0.0
 10
11.2622
 20
58.909
 30
0.0
 10
10.8303
 20
58.9022
 30
0.0
 10
10.5004
 20
58.6776
 30
0.0
 10
10.5004
 20
58.6776
 30
0.0
 10
10.1704
 20
58.4531
 30
0.0
 10
10.0056
 20
58.0539
 30
0.0
 10
10.081
 20
57.6619
 30
0.0
  0
SPLINE
  5
E6
330
1F
100
AcDbEntity
  8
0
100
AcDbSpline
210
0.0
220
0.0
230
1.0
 70
     8
 71
     3
 72
     8
 73
     4
 74
     0
 42
0.000000001
 43
0.0000000001
 40
0.0
 40
0.0
 40
0.0
 40
0.0
 40
1.0
 40
1.0
 40
1.0
 40
1.0
 10
-68.4588
 20
92.4535
 30
0.0
 10
-68.0574
 20
85.6449
 30
0.0
 10
-65.9217
 20
79.052
 30
0.0
 10
-62.2547
 20
73.3012
 30
0.0
  0
SPLINE
  5
E7
330
1F
100
AcDbEntity
  8
0
100
AcDbSpline
210
0.0
220
0.0
230
1.0
 70
     8
 71
     3
 72
     8
 73
     4
 74
     0
 42
0.000000001
 43
0.0000000001
 40
0.0
 40
0.0
 40
0.0
 40
0.0
 40
1.0
 40
1.0
 40
1.0
 40
1.0
 10
-103.6503
 20
25.2819
 30
0.0
 10
-103.5735
 20
21.7594
 30
0.0
 10
-101.6486
 20
18.5373
 30
0.0
 10
-98.5833
 20
16.8001
 30
0.0
  0
SPLINE
  5
E8
330
1F
100
AcDbEntity
  8
0
100
AcDbSpline
210
0.0
220
0.0
230
1.0
 70
     8
 71
     3
 72
     8
 73
     4
 74
     0
 42
0.000000001
 43
0.0000000001
 40
0.0
 40
0.0
 40
0.0
 40
0.0
 40
1.0
 40
1.0
 40
1.0
 40
1.0
 10
-75.9558
 20
72.9519
 30
0.0
 10
-76.0047
 20
72.8658
 30
0.0
 10
-76.052
 20
72.7788
 30
0.0
 10
-76.0976
 20
72.691
 30
0.0
  0
SPLINE
  5
E9
330
1F
100
AcDbEntity
  8
0
100
AcDbSpline
210
0.0
220
0.0
230
1.0
 70
     8
 71
     3
 72
     8
 73
     4
 74
     0
 42
0.000000001
 43
0.0000000001
 40
0.0
 40
0.0
 40
0.0
 40
0.0
 40
1.0
 40
1.0
 40
1.0
 40
1.0
 10
-62.0997
 20
73.048
 30
0.0
 10
-62.1498
 20
73.1333
 30
0.0
 10
-62.2015
 20
73.2178
 30
0.0
 10
-62.2547
 20
73.3012
 30
0.0
  0
SPLINE
  5
EA
330
1F
100
AcDbEntity
  8
0
100
AcDbSpline
210
0.0
220
0.0
230
1.0
 70
     8
 71
     3
 72
     8
 73
     4
 74
     0
 42
0.000000001
 43
0.0000000001
 40
0.0
 40
0.0
 40
0.0
 40
0.0
 40
1.0
 40
1.0
 40
1.0
 40
1.0
 10
-89.5819
 20
57.742
 30
0.0
 10
-100.718
 20
50.4064
 30
0.0
 10
-107.1878
 20
37.765
 30
0.0
 10
-106.6248
 20
24.4418
 30
0.0
  0
SPLINE
  5
EB
330
1F
100
AcDbEntity
  8
0
100
AcDbSpline
210
0.0
220
0.0
230
1.0
 70
     8
 71
     3
 72
    12
 73
     8
 74
     0
 42
0.000000001
 43
0.0000000001
 40
0.0
 40
0.0
 40
0.0
 40
0.0
 40
0.3333333333333333
 40
0.3333333333333333
 40
0.3333333333333333
 40
0.3333333333333333
 40
1.0
 40
1.0
 40
1.0
 40
1.0
 10
-68.9445
 20
61.0002
 30
0.0
 10
-78.3055
 20
60.9353
 30
0.0
 10
-87.2493
 20
57.1185
 30
0.0
 10
-93.7729
 20
50.4046
 30
0.0
 10
-93.7729
 20
50.4046
 30
0.0
 10
-100.2964
 20
43.6908
 30
0.0
 10
-103.8545
 20
34.6409
 30
0.0
 10
-103.6503
 20
25.2819
 30
0.0
  0
SPLINE
  5
EC
330
1F
100
AcDbEntity
  8
0
100
AcDbSpline
210
0.0
220
0.0
230
1.0
 70
     8
 71
     3
 72
    12
 73
     8
 74
     0
 42
0.000000001
 43
0.0000000001
 40
0.0
 40
0.0
 40
0.0
 40
0.0
 40
0.3333333333333333
 40
0.3333333333333333
 40
0.3333333333333333
 40
0.3333333333333333
 40
1.0
 40
1.0
 40
1.0
 40
1.0
 10
-75.9558
 20
72.9519
 30
0.0
 10
-71.3315
 20
81.0911
 30
0.0
 10
-70.1651
 20
90.7451
 30
0.0
 10
-72.7176
 20
99.7515
 30
0.0
 10
-72.7176
 20
99.7515
 30
0.0
 10
-75.2702
 20
108.758
 30
0.0
 10
-81.3285
 20
116.3643
 30
0.0
 10
-89.5356
 20
120.867
 30
0.0
  0
SPLINE
  5
ED
330
1F
100
AcDbEntity
  8
0
100
AcDbSpline
210
0.0
220
0.0
230
1.0
 70
     8
 71
     3
 72
     8
 73
     4
 74
     0
 42
0.000000001
 43
0.0000000001
 40
0.0
 40
0.0
 40
0.0
 40
0.0
 40
1.0
 40
1.0
 40
1.0
 40
1.0
 10
-68.9445
 20
61.0002
 30
0.0
 10
-68.8455
 20
61.0009
 30
0.0
 10
-68.7466
 20
61.0034
 30
0.0
 10
-68.6477
 20
61.0078
 30
0.0
  0
SPLINE
  5
EE
330
1F
100
AcDbEntity
  8
0
100
AcDbSpline
210
0.0
220
0.0
230
1.0
 70
    11
 71
     3
 72
    20
 73
    16
 74
     0
 42
0.000000001
 43
0.0000000001
 40
0.0
 40
0.0
 40
0.0
 40
0.0
 40
0.2
 40
0.2
 40
0.2
 40
0.2
 40
0.4
 40
0.4
 40
0.4
 40
0.4
 40
0.6
 40
0.6
 40
0.6
 40
0.6
 40
1.0
 40
1.0
 40
1.0
 40
1.0
 10
-62.5
 20
69.0
 30
0.0
 10
-62.5
 20
72.5898
 30
0.0
 10
-65.4101
 20
75.5
 30
0.0
 10
-69.0
 20
75.5
 30
0.0
 10
-69.0
 20
75.5
 30
0.0
 10
-72.5898
 20
75.5
 30
0.0
 10
-75.5
 20
72.5899
 30
0.0
 10
-75.5
 20
69.0
 30
0.0
 10
-75.5
 20
69.0
 30
0.0
 10
-75.5
 20
65.4102
 30
0.0
 10
-72.5899
 20
62.5
 30
0.0
 10
-69.0
 20
62.5
 30
0.0
 10
-69.0
 20
62.5
 30
0.0
 10
-65.4102
 20
62.5
 30
0.0
 10
-62.5
 20
65.4101
 30
0.0
 10
-62.5
 20
69.0
 30
0.0
  0
SPLINE
  5
EF
330
1F
100
AcDbEntity
  8
0
100
AcDbSpline
210
0.0
220
0.0
230
1.0
 70
     8
 71
     3
 72
    12
 73
     8
 74
     0
 42
0.000000001
 43
0.0000000001
 40
0.0
 40
0.0
 40
0.0
 40
0.0
 40
0.3333333333333333
 40
0.3333333333333333
 40
0.3333333333333333
 40
0.3333333333333333
 40
1.0
 40
1.0
 40
1.0
 40
1.0
 10
-8.6395
 20
-30.9305
 30
0.0
 10
-9.3214
 20
-30.9305
 30
0.0
 10
-9.9563
 20
-31.2779
 30
0.0
 10
-10.3239
 20
-31.8522
 30
0.0
 10
-10.3239
 20
-31.8522
 30
0.0
 10
-10.6916
 20
-32.4265
 30
0.0
 10
-10.7413
 20
-33.1485
 30
0.0
 10
-10.4558
 20
-33.7678
 30
0.0
  0
SPLINE
  5
F0
330
1F
100
AcDbEntity
  8
0
100
AcDbSpline
210
0.0
220
0.0
230
1.0
 70
     8
 71
     3
 72
     8
 73
     4
 74
     0
 42
0.000000001
 43
0.0000000001
 40
0.0
 40
0.0
 40
0.0
 40
0.0
 40
1.0
 40
1.0
 40
1.0
 40
1.0
 10
-5.7539
 20
-43.967
 30
0.0
 10
-5.4272
 20
-44.6757
 30
0.0
 10
-4.718
 20
-45.1296
 30
0.0
 10
-3.9376
 20
-45.1296
 30
0.0
  0
SPLINE
  5
F1
330
1F
100
AcDbEntity
  8
0
100
AcDbSpline
210
0.0
220
0.0
230
1.0
 70
     8
 71
     3
 72
     8
 73
     4
 74
     0
 42
0.000000001
 43
0.0000000001
 40
0.0
 40
0.0
 40
0.0
 40
0.0
 40
1.0
 40
1.0
 40
1.0
 40
1.0
 10
3.9376
 20
-45.1296
 30
0.0
 10
4.718
 20
-45.1296
 30
0.0
 10
5.4272
 20
-44.6757
 30
0.0
 10
5.7539
 20
-43.967
 30
0.0
  0
SPLINE
  5
F2
330
1F
100
AcDbEntity
  8
0
100
AcDbSpline
210
0.0
220
0.0
230
1.0
 70
     8
 71
     3
 72
    12
 73
     8
 74
     0
 42
0.000000001
 43
0.0000000001
 40
0.0
 40
0.0
 40
0.0
 40
0.0
 40
0.3333333333333333
 40
0.3333333333333333
 40
0.3333333333333333
 40
0.3333333333333333
 40
1.0
 40
1.0
 40
1.0
 40
1.0
 10
10.4558
 20
-33.7678
 30
0.0
 10
10.7413
 20
-33.1485
 30
0.0
 10
10.6916
 20
-32.4265
 30
0.0
 10
10.3239
 20
-31.8522
 30
0.0
 10
10.3239
 20
-31.8522
 30
0.0
 10
9.9563
 20
-31.2779
 30
0.0
 10
9.3214
 20
-30.9305
 30
0.0
 10
8.6395
 20
-30.9305
 30
0.0
  0
SPLINE
  5
F3
330
1F
100
AcDbEntity
  8
0
100
AcDbSpline
210
0.0
220
0.0
230
1.0
 70
     8
 71
     3
 72
    16
 73
    12
 74
     0
 42
0.000000001
 43
0.0000000001
 40
0.0
 40
0.0
 40
0.0
 40
0.0
 40
0.25
 40
0.25
 40
0.25
 40
0.25
 40
0.5
 40
0.5
 40
0.5
 40
0.5
 40
1.0
 40
1.0
 40
1.0
 40
1.0
 10
-23.1909
 20
14.5045
 30
0.0
 10
-23.1909
 20
15.1508
 30
0.0
 10
-23.5357
 20
15.748
 30
0.0
 10
-24.0955
 20
16.0712
 30
0.0
 10
-24.0955
 20
16.0712
 30
0.0
 10
-24.6552
 20
16.3944
 30
0.0
 10
-25.3448
 20
16.3944
 30
0.0
 10
-25.9045
 20
16.0712
 30
0.0
 10
-25.9045
 20
16.0712
 30
0.0
 10
-26.4643
 20
15.748
 30
0.0
 10
-26.8091
 20
15.1508
 30
0.0
 10
-26.8091
 20
14.5045
 30
0.0
  0
SPLINE
  5
F4
330
1F
100
AcDbEntity
  8
0
100
AcDbSpline
210
0.0
220
0.0
230
1.0
 70
     8
 71
     3
 72
    12
 73
     8
 74
     0
 42
0.000000001
 43
0.0000000001
 40
0.0
 40
0.0
 40
0.0
 40
0.0
 40
0.3333333333333333
 40
0.3333333333333333
 40
0.3333333333333333
 40
0.3333333333333333
 40
1.0
 40
1.0
 40
1.0
 40
1.0
 10
-26.8091
 20
-15.4955
 30
0.0
 10
-26.8091
 20
-16.4946
 30
0.0
 10
-25.9991
 20
-17.3046
 30
0.0
 10
-25.0
 20
-17.3046
 30
0.0
 10
-25.0
 20
-17.3046
 30
0.0
 10
-24.0009
 20
-17.3046
 30
0.0
 10
-23.1909
 20
-16.4946
 30
0.0
 10
-23.1909
 20
-15.4955
 30
0.0
  0
SPLINE
  5
F5
330
1F
100
AcDbEntity
  8
0
100
AcDbSpline
210
0.0
220
0.0
230
1.0
 70
     8
 71
     3
 72
    16
 73
    12
 74
     0
 42
0.000000001
 43
0.0000000001
 40
0.0
 40
0.0
 40
0.0
 40
0.0
 40
0.25
 40
0.25
 40
0.25
 40
0.25
 40
0.5
 40
0.5
 40
0.5
 40
0.5
 40
1.0
 40
1.0
 40
1.0
 40
1.0
 10
26.8091
 20
14.5045
 30
0.0
 10
26.8091
 20
15.1508
 30
0.0
 10
26.4643
 20
15.748
 30
0.0
 10
25.9045
 20
16.0712
 30
0.0
 10
25.9045
 20
16.0712
 30
0.0
 10
25.3448
 20
16.3944
 30
0.0
 10
24.6552
 20
16.3944
 30
0.0
 10
24.0955
 20
16.0712
 30
0.0
 10
24.0955
 20
16.0712
 30
0.0
 10
23.5357
 20
15.748
 30
0.0
 10
23.1909
 20
15.1508
 30
0.0
 10
23.1909
 20
14.5045
 30
0.0
  0
SPLINE
  5
F6
330
1F
100
AcDbEntity
  8
0
100
AcDbSpline
210
0.0
220
0.0
230
1.0
 70
     8
 71
     3
 72
    12
 73
     8
 74
     0
 42
0.000000001
 43
0.0000000001
 40
0.0
 40
0.0
 40
0.0
 40
0.0
 40
0.3333333333333333
 40
0.3333333333333333
 40
0.3333333333333333
 40
0.3333333333333333
 40
1.0
 40
1.0
 40
1.0
 40
1.0
 10
23.1909
 20
-15.4955
 30
0.0
 10
23.1909
 20
-16.4946
 30
0.0
 10
24.0009
 20
-17.3046
 30
0.0
 10
25.0
 20
-17.3046
 30
0.0
 10
25.0
 20
-17.3046
 30
0.0
 10
25.9991
 20
-17.3046
 30
0.0
 10
26.8091
 20
-16.4946
 30
0.0
 10
26.8091
 20
-15.4955
 30
0.0
  0
SPLINE
  5
F7
330
1F
100
AcDbEntity
  8
0
100
AcDbSpline
210
0.0
220
0.0
230
1.0
 70
    24
 71
     3
 72
     8
 73
     4
 74
     0
 42
0.000000001
 43
0.0000000001
 40
0.0
 40
0.0
 40
0.0
 40
0.0
 40
1.0
 40
1.0
 40
1.0
 40
1.0
 10
-3.9376
 20
-45.1296
 30
0.0
 10
-3.9376
 20
-45.1296
 30
0.0
 10
3.9376
 20
-45.1296
 30
0.0
 10
3.9376
 20
-45.1296
 30
0.0
  0
SPLINE
  5
F8
330
1F
100
AcDbEntity
  8
0
100
AcDbSpline
210
0.0
220
0.0
230
1.0
 70
    24
 71
     3
 72
     8
 73
     4
 74
     0
 42
0.000000001
 43
0.0000000001
 40
0.0
 40
0.0
 40
0.0
 40
0.0
 40
1.0
 40
1.0
 40
1.0
 40
1.0
 10
-8.6395
 20
-30.9305
 30
0.0
 10
-8.6395
 20
-30.9305
 30
0.0
 10
8.6395
 20
-30.9305
 30
0.0
 10
8.6395
 20
-30.9305
 30
0.0
  0
SPLINE
  5
F9
330
1F
100
AcDbEntity
  8
0
100
AcDbSpline
210
0.0
220
0.0
230
1.0
 70
    24
 71
     3
 72
     8
 73
     4
 74
     0
 42
0.000000001
 43
0.0000000001
 40
0.0
 40
0.0
 40
0.0
 40
0.0
 40
1.0
 40
1.0
 40
1.0
 40
1.0
 10
-5.7539
 20
-43.967
 30
0.0
 10
-5.7539
 20
-43.967
 30
0.0
 10
-10.4558
 20
-33.7678
 30
0.0
 10
-10.4558
 20
-33.7678
 30
0.0
  0
SPLINE
  5
FA
330
1F
100
AcDbEntity
  8
0
100
AcDbSpline
210
0.0
220
0.0
230
1.0
 70
    24
 71
     3
 72
     8
 73
     4
 74
     0
 42
0.000000001
 43
0.0000000001
 40
0.0
 40
0.0
 40
0.0
 40
0.0
 40
1.0
 40
1.0
 40
1.0
 40
1.0
 10
5.7539
 20
-43.967
 30
0.0
 10
5.7539
 20
-43.967
 30
0.0
 10
10.4558
 20
-33.7678
 30
0.0
 10
10.4558
 20
-33.7678
 30
0.0
  0
SPLINE
  5
FB
330
1F
100
AcDbEntity
  8
0
100
AcDbSpline
210
0.0
220
0.0
230
1.0
 70
    24
 71
     3
 72
     8
 73
     4
 74
     0
 42
0.000000001
 43
0.0000000001
 40
0.0
 40
0.0
 40
0.0
 40
0.0
 40
1.0
 40
1.0
 40
1.0
 40
1.0
 10
-103.1839
 20
5.8486
 30
0.0
 10
-103.1839
 20
5.8486
 30
0.0
 10
-91.7062
 20
0.9188
 30
0.0
 10
-91.7062
 20
0.9188
 30
0.0
  0
SPLINE
  5
FC
330
1F
100
AcDbEntity
  8
0
100
AcDbSpline
210
0.0
220
0.0
230
1.0
 70
    24
 71
     3
 72
     8
 73
     4
 74
     0
 42
0.000000001
 43
0.0000000001
 40
0.0
 40
0.0
 40
0.0
 40
0.0
 40
1.0
 40
1.0
 40
1.0
 40
1.0
 10
-91.7062
 20
-0.9188
 30
0.0
 10
-91.7062
 20
-0.9188
 30
0.0
 10
-103.1839
 20
-5.8486
 30
0.0
 10
-103.1839
 20
-5.8486
 30
0.0
  0
SPLINE
  5
FD
330
1F
100
AcDbEntity
  8
0
100
AcDbSpline
210
0.0
220
0.0
230
1.0
 70
    24
 71
     3
 72
     8
 73
     4
 74
     0
 42
0.000000001
 43
0.0000000001
 40
0.0
 40
0.0
 40
0.0
 40
0.0
 40
1.0
 40
1.0
 40
1.0
 40
1.0
 10
91.7062
 20
-0.9188
 30
0.0
 10
91.7062
 20
-0.9188
 30
0.0
 10
103.1839
 20
-5.8486
 30
0.0
 10
103.1839
 20
-5.8486
 30
0.0
  0
SPLINE
  5
FE
330
1F
100
AcDbEntity
  8
0
100
AcDbSpline
210
0.0
220
0.0
230
1.0
 70
    24
 71
     3
 72
     8
 73
     4
 74
     0
 42
0.000000001
 43
0.0000000001
 40
0.0
 40
0.0
 40
0.0
 40
0.0
 40
1.0
 40
1.0
 40
1.0
 40
1.0
 10
103.1839
 20
5.8486
 30
0.0
 10
103.1839
 20
5.8486
 30
0.0
 10
91.7062
 20
0.9188
 30
0.0
 10
91.7062
 20
0.9188
 30
0.0
  0
SPLINE
  5
FF
330
1F
100
AcDbEntity
  8
0
100
AcDbSpline
210
0.0
220
0.0
230
1.0
 70
    24
 71
     3
 72
     8
 73
     4
 74
     0
 42
0.000000001
 43
0.0000000001
 40
0.0
 40
0.0
 40
0.0
 40
0.0
 40
1.0
 40
1.0
 40
1.0
 40
1.0
 10
-23.1909
 20
14.5045
 30
0.0
 10
-23.1909
 20
14.5045
 30
0.0
 10
-23.1909
 20
-15.4955
 30
0.0
 10
-23.1909
 20
-15.4955
 30
0.0
  0
SPLINE
  5
100
330
1F
100
AcDbEntity
  8
0
100
AcDbSpline
210
0.0
220
0.0
230
1.0
 70
    24
 71
     3
 72
     8
 73
     4
 74
     0
 42
0.000000001
 43
0.0000000001
 40
0.0
 40
0.0
 40
0.0
 40
0.0
 40
1.0
 40
1.0
 40
1.0
 40
1.0
 10
-26.8091
 20
14.5045
 30
0.0
 10
-26.8091
 20
14.5045
 30
0.0
 10
-26.8091
 20
-15.4955
 30
0.0
 10
-26.8091
 20
-15.4955
 30
0.0
  0
SPLINE
  5
101
330
1F
100
AcDbEntity
  8
0
100
AcDbSpline
210
0.0
220
0.0
230
1.0
 70
    24
 71
     3
 72
     8
 73
     4
 74
     0
 42
0.000000001
 43
0.0000000001
 40
0.0
 40
0.0
 40
0.0
 40
0.0
 40
1.0
 40
1.0
 40
1.0
 40
1.0
 10
23.1909
 20
14.5045
 30
0.0
 10
23.1909
 20
14.5045
 30
0.0
 10
23.1909
 20
-15.4955
 30
0.0
 10
23.1909
 20
-15.4955
 30
0.0
  0
SPLINE
  5
102
330
1F
100
AcDbEntity
  8
0
100
AcDbSpline
210
0.0
220
0.0
230
1.0
 70
    24
 71
     3
 72
     8
 73
     4
 74
     0
 42
0.000000001
 43
0.0000000001
 40
0.0
 40
0.0
 40
0.0
 40
0.0
 40
1.0
 40
1.0
 40
1.0
 40
1.0
 10
26.8091
 20
14.5045
 30
0.0
 10
26.8091
 20
14.5045
 30
0.0
 10
26.8091
 20
-15.4955
 30
0.0
 10
26.8091
 20
-15.4955
 30
0.0
  0
SPLINE
  5
103
330
1F
100
AcDbEntity
  8
0
100
AcDbSpline
210
0.0
220
0.0
230
1.0
 70
    11
 71
     3
 72
    20
 73
    16
 74
     0
 42
0.000000001
 43
0.0000000001
 40
0.0
 40
0.0
 40
0.0
 40
0.0
 40
0.2
 40
0.2
 40
0.2
 40
0.2
 40
0.4
 40
0.4
 40
0.4
 40
0.4
 40
0.6
 40
0.6
 40
0.6
 40
0.6
 40
1.0
 40
1.0
 40
1.0
 40
1.0
 10
69.01
 20
69.0
 30
0.0
 10
69.01
 20
69.0055
 30
0.0
 10
69.0055
 20
69.01
 30
0.0
 10
69.0
 20
69.01
 30
0.0
 10
69.0
 20
69.01
 30
0.0
 10
68.9945
 20
69.01
 30
0.0
 10
68.99
 20
69.0055
 30
0.0
 10
68.99
 20
69.0
 30
0.0
 10
68.99
 20
69.0
 30
0.0
 10
68.99
 20
68.9945
 30
0.0
 10
68.9945
 20
68.99
 30
0.0
 10
69.0
 20
68.99
 30
0.0
 10
69.0
 20
68.99
 30
0.0
 10
69.0055
 20
68.99
 30
0.0
 10
69.01
 20
68.9945
 30
0.0
 10
69.01
 20
69.0
 30
0.0
  0
ENDSEC
  0
SECTION
  2
OBJECTS
  0
DICTIONARY
  5
C
330
0
100
AcDbDictionary
  3
ACAD_GROUP
350
D
  3
ACAD_LAYOUT
350
1A
  3
ACAD_MATERIAL
350
43
  3
ACAD_MLEADERSTYLE
350
6B
  3
ACAD_MLINESTYLE
350
17
  3
ACAD_PLOTSETTINGS
350
19
  3
ACAD_SCALELIST
350
47
  3
ACAD_VISUALSTYLE
350
2A
  3
ACDBHEADERROUNDTRIPXREC
350
104
  3
ACDBVARIABLEDICTIONARY
350
125
  0
DICTIONARY
  5
12C
330
8
100
AcDbDictionary
280
     1
  3
ACAD_XREC_ROUNDTRIP
360
12D
  0
DICTIONARY
  5
D
102
{ACAD_REACTORS
330
C
102
}
330
C
100
AcDbDictionary
  0
DICTIONARY
  5
1A
102
{ACAD_REACTORS
330
C
102
}
330
C
100
AcDbDictionary
  0
DICTIONARY
  5
43
102
{ACAD_REACTORS
330
C
102
}
330
C
100
AcDbDictionary
  3
BYBLOCK
350
45
  3
BYLAYER
350
44
  3
GLOBAL
350
46
  0
DICTIONARY
  5
6B
102
{ACAD_REACTORS
330
C
102
}
330
C
100
AcDbDictionary
  3
STANDARD
350
6C
  0
DICTIONARY
  5
17
102
{ACAD_REACTORS
330
C
102
}
330
C
100
AcDbDictionary
  3
STANDARD
350
18
  0
DICTIONARY
  5
19
102
{ACAD_REACTORS
330
C
102
}
330
C
100
AcDbDictionary
  0
DICTIONARY
  5
47
102
{ACAD_REACTORS
330
C
102
}
330
C
100
AcDbDictionary
  3
A0
350
48
  3
A1
350
49
  3
A2
350
4A
  3
A3
350
4B
  3
A4
350
4C
  3
A5
350
4D
  3
A6
350
4E
  3
A7
350
4F
  3
A8
350
50
  3
A9
350
51
  3
B0
350
52
  3
B1
350
53
  3
B2
350
54
  3
B3
350
55
  3
B4
350
56
  3
B5
350
57
  3
B6
350
58
  3
B7
350
59
  3
B8
350
5A
  3
B9
350
5B
  3
C0
350
5C
  3
C1
350
5D
  3
C2
350
5E
  3
C3
350
5F
  3
C4
350
60
  3
C5
350
61
  3
C6
350
62
  3
C7
350
63
  3
C8
350
64
  3
C9
350
65
  3
D0
350
66
  3
D1
350
67
  3
D2
350
68
  0
DICTIONARY
  5
2A
102
{ACAD_REACTORS
330
C
102
}
330
C
100
AcDbDictionary
  3
2DWIREFRAME
350
2F
  3
BASIC
350
32
  3
BRIGHTEN
350
36
  3
COLORCHANGE
350
3A
  3
CONCEPTUAL
350
34
  3
DIM
350
35
  3
EDGECOLOROFF
350
3D
  3
FACEPATTERN
350
39
  3
FLAT
350
2B
  3
FLATWITHEDGES
350
2C
  3
GOURAUD
350
2D
  3
GOURAUDWITHEDGES
350
2E
  3
HIDDEN
350
31
  3
JITTEROFF
350
3B
  3
LINEPATTERN
350
38
  3
OVERHANGOFF
350
3C
  3
REALISTIC
350
33
  3
SHADED
350
42
  3
SHADED_WITH_EDGES
350
41
  3
SHADES_OF_GRAY
350
3E
  3
SKETCHY
350
3F
  3
THICKEN
350
37
  3
WIREFRAME
350
30
  3
X-RAY
350
40
  0
DICTIONARY
  5
104
102
{ACAD_REACTORS
330
C
102
}
330
C
100
AcDbDictionary
  3
CEPSNID
350
10E
  3
CEPSNTYPE
350
10D
  3
DIMSTYLEDATA
350
124
  3
FINGERPRINTGUID
350
10F
  3
HYPERLINKBASE
350
107
  3
INSUNITS
350
10C
  3
LAYOUTDICT
350
109
  3
LWETCUNION
350
10B
  3
PLOTSETDICT
350
10A
  3
PSVPSCALE
350
111
  3
PUCSBASE
350
114
  3
PUCSORGBACK
350
11A
  3
PUCSORGBOTTOM
350
116
  3
PUCSORGFRONT
350
119
  3
PUCSORGLEFT
350
117
  3
PUCSORGRIGHT
350
118
  3
PUCSORGTOP
350
115
  3
PUCSORTHOREF
350
112
  3
PUCSORTHOVIEW
350
113
  3
STYLESHEET
350
108
  3
TSTACKALIGN
350
105
  3
TSTACKSIZE
350
106
  3
UCSBASE
350
11D
  3
UCSORGBACK
350
123
  3
UCSORGBOTTOM
350
11F
  3
UCSORGFRONT
350
122
  3
UCSORGLEFT
350
120
  3
UCSORGRIGHT
350
121
  3
UCSORGTOP
350
11E
  3
UCSORTHOREF
350
11B
  3
UCSORTHOVIEW
350
11C
  3
VERSIONGUID
350
110
  0
DICTIONARY
  5
125
102
{ACAD_REACTORS
330
C
102
}
330
C
100
AcDbDictionary
  3
CANNOSCALE
350
12E
  3
CMLEADERSTYLE
350
127
  3
CTABLESTYLE
350
126
  3
DIMASSOC
350
12A
  3
HIDETEXT
350
12B
  3
MSLTSCALE
350
12F
  0
XRECORD
  5
12D
102
{ACAD_REACTORS
330
12C
102
}
330
12C
100
AcDbXrecord
102
VTR_0.000_0.000_1.000_1.000_GRIDDISPLAY
 70
     3
102
VTR_0.000_0.000_1.000_1.000_GRIDMAJOR
 70
     5
102
VTR_0.000_0.000_1.000_1.000_DEFAULTLIGHTING
280
     1
102
VTR_0.000_0.000_1.000_1.000_DEFAULTLIGHTINGTYPE
 70
     1
102
VTR_0.000_0.000_1.000_1.000_BRIGHTNESS
141
0.0
102
VTR_0.000_0.000_1.000_1.000_CONTRAST
142
0.0
  0
MATERIAL
  5
45
102
{ACAD_REACTORS
330
43
102
}
102
{ACAD_XDICTIONARY
360
132
102
}
330
43
100
AcDbMaterial
  1
BYBLOCK
  0
MATERIAL
  5
44
102
{ACAD_REACTORS
330
43
102
}
102
{ACAD_XDICTIONARY
360
130
102
}
330
43
100
AcDbMaterial
  1
BYLAYER
  0
MATERIAL
  5
46
102
{ACAD_REACTORS
330
43
102
}
102
{ACAD_XDICTIONARY
360
134
102
}
330
43
100
AcDbMaterial
  1
GLOBAL
  0
ACAD_PROXY_OBJECT
  5
6C
102
{ACAD_REACTORS
330
6B
102
}
330
6B
100
AcDbProxyObject
 90
      499
 91
      505
 93
      610
310
40901902A4063FBFFFFFE056BD1B81E855B9FC0AD7A3703D0AD73F4214DD185B99185C9900AD7A3703D0AC73F90141901A02B5E8DC0F42B1CFC02B5E8DC0F42B1CFE5764000000000000300FC0
340
14
340
0
340
11
340
0
 94
        0
1001
ACAD_MLEADERVER
1070
     2
  0
MLINESTYLE
  5
18
102
{ACAD_REACTORS
330
17
102
}
330
17
100
AcDbMlineStyle
  2
Standard
 70
     0
  3

 62
   256
 51
90.0
 52
90.0
 71
     2
 49
0.5
 62
   256
  6
BYLAYER
 49
-0.5
 62
   256
  6
BYLAYER
  0
ACAD_PROXY_OBJECT
  5
48
102
{ACAD_REACTORS
330
47
102
}
330
47
100
AcDbProxyObject
 90
      499
 91
      503
 93
       41
310
903313A31580
  0
ACAD_PROXY_OBJECT
  5
49
102
{ACAD_REACTORS
330
47
102
}
330
47
100
AcDbProxyObject
 90
      499
 91
      503
 93
      105
310
903313A324000000000000004000
  0
ACAD_PROXY_OBJECT
  5
4A
102
{ACAD_REACTORS
330
47
102
}
330
47
100
AcDbProxyObject
 90
      499
 91
      503
 93
      105
310
903313A344000000000000104000
  0
ACAD_PROXY_OBJECT
  5
4B
102
{ACAD_REACTORS
330
47
102
}
330
47
100
AcDbProxyObject
 90
      499
 91
      503
 93
      105
310
903313A354000000000000144000
  0
ACAD_PROXY_OBJECT
  5
4C
102
{ACAD_REACTORS
330
47
102
}
330
47
100
AcDbProxyObject
 90
      499
 91
      503
 93
      105
310
903313A384000000000000204000
  0
ACAD_PROXY_OBJECT
  5
4D
102
{ACAD_REACTORS
330
47
102
}
330
47
100
AcDbProxyObject
 90
      499
 91
      503
 93
      113
310
904313A31304000000000000244000
  0
ACAD_PROXY_OBJECT
  5
4E
102
{ACAD_REACTORS
330
47
102
}
330
47
100
AcDbProxyObject
 90
      499
 91
      503
 93
      113
310
904313A31364000000000000304000
  0
ACAD_PROXY_OBJECT
  5
4F
102
{ACAD_REACTORS
330
47
102
}
330
47
100
AcDbProxyObject
 90
      499
 91
      503
 93
      113
310
904313A32304000000000000344000
  0
ACAD_PROXY_OBJECT
  5
50
102
{ACAD_REACTORS
330
47
102
}
330
47
100
AcDbProxyObject
 90
      499
 91
      503
 93
      113
310
904313A333040000000000003E4000
  0
ACAD_PROXY_OBJECT
  5
51
102
{ACAD_REACTORS
330
47
102
}
330
47
100
AcDbProxyObject
 90
      499
 91
      503
 93
      113
310
904313A34304000000000000444000
  0
ACAD_PROXY_OBJECT
  5
52
102
{ACAD_REACTORS
330
47
102
}
330
47
100
AcDbProxyObject
 90
      499
 91
      503
 93
      113
310
904313A35304000000000000494000
  0
ACAD_PROXY_OBJECT
  5
53
102
{ACAD_REACTORS
330
47
102
}
330
47
100
AcDbProxyObject
 90
      499
 91
      503
 93
      121
310
905313A3130304000000000000594000
  0
ACAD_PROXY_OBJECT
  5
54
102
{ACAD_REACTORS
330
47
102
}
330
47
100
AcDbProxyObject
 90
      499
 91
      503
 93
      105
310
903323A310000000000000010100
  0
ACAD_PROXY_OBJECT
  5
55
102
{ACAD_REACTORS
330
47
102
}
330
47
100
AcDbProxyObject
 90
      499
 91
      503
 93
      105
310
903343A310000000000000410100
  0
ACAD_PROXY_OBJECT
  5
56
102
{ACAD_REACTORS
330
47
102
}
330
47
100
AcDbProxyObject
 90
      499
 91
      503
 93
      105
310
903383A310000000000000810100
  0
ACAD_PROXY_OBJECT
  5
57
102
{ACAD_REACTORS
330
47
102
}
330
47
100
AcDbProxyObject
 90
      499
 91
      503
 93
      113
310
90431303A310000000000000910100
  0
ACAD_PROXY_OBJECT
  5
58
102
{ACAD_REACTORS
330
47
102
}
330
47
100
AcDbProxyObject
 90
      499
 91
      503
 93
      121
310
9053130303A310000000000001650100
  0
ACAD_PROXY_OBJECT
  5
59
102
{ACAD_REACTORS
330
47
102
}
330
47
100
AcDbProxyObject
 90
      499
 91
      503
 93
      257
310
90E312F31323822203D2031272D3022000000000000200FC000000000000284000
  0
ACAD_PROXY_OBJECT
  5
5A
102
{ACAD_REACTORS
330
47
102
}
330
47
100
AcDbProxyObject
 90
      499
 91
      503
 93
      249
310
90D312F363422203D2031272D3022000000000000240FC000000000000284000
  0
ACAD_PROXY_OBJECT
  5
5B
102
{ACAD_REACTORS
330
47
102
}
330
47
100
AcDbProxyObject
 90
      499
 91
      503
 93
      249
310
90D312F333222203D2031272D3022000000000000280FC000000000000284000
  0
ACAD_PROXY_OBJECT
  5
5C
102
{ACAD_REACTORS
330
47
102
}
330
47
100
AcDbProxyObject
 90
      499
 91
      503
 93
      249
310
90D312F313622203D2031272D30220000000000002C0FC000000000000284000
  0
ACAD_PROXY_OBJECT
  5
5D
102
{ACAD_REACTORS
330
47
102
}
330
47
100
AcDbProxyObject
 90
      499
 91
      503
 93
      249
310
90D332F333222203D2031272D30220000000000002E0FC000000000000284000
  0
ACAD_PROXY_OBJECT
  5
5E
102
{ACAD_REACTORS
330
47
102
}
330
47
100
AcDbProxyObject
 90
      499
 91
      503
 93
      241
310
90C312F3822203D2031272D3022000000000000300FC000000000000284000
  0
ACAD_PROXY_OBJECT
  5
5F
102
{ACAD_REACTORS
330
47
102
}
330
47
100
AcDbProxyObject
 90
      499
 91
      503
 93
      249
310
90D332F313622203D2031272D3022000000000000320FC000000000000284000
  0
ACAD_PROXY_OBJECT
  5
60
102
{ACAD_REACTORS
330
47
102
}
330
47
100
AcDbProxyObject
 90
      499
 91
      503
 93
      241
310
90C312F3422203D2031272D3022000000000000340FC000000000000284000
  0
ACAD_PROXY_OBJECT
  5
61
102
{ACAD_REACTORS
330
47
102
}
330
47
100
AcDbProxyObject
 90
      499
 91
      503
 93
      241
310
90C332F3822203D2031272D3022000000000000360FC000000000000284000
  0
ACAD_PROXY_OBJECT
  5
62
102
{ACAD_REACTORS
330
47
102
}
330
47
100
AcDbProxyObject
 90
      499
 91
      503
 93
      241
310
90C312F3222203D2031272D3022000000000000380FC000000000000284000
  0
ACAD_PROXY_OBJECT
  5
63
102
{ACAD_REACTORS
330
47
102
}
330
47
100
AcDbProxyObject
 90
      499
 91
      503
 93
      241
310
90C332F3422203D2031272D30220000000000003A0FC000000000000284000
  0
ACAD_PROXY_OBJECT
  5
64
102
{ACAD_REACTORS
330
47
102
}
330
47
100
AcDbProxyObject
 90
      499
 91
      503
 93
      161
310
90A3122203D2031272D30224000000000000284000
  0
ACAD_PROXY_OBJECT
  5
65
102
{ACAD_REACTORS
330
47
102
}
330
47
100
AcDbProxyObject
 90
      499
 91
      503
 93
      257
310
90E312D312F3222203D2031272D30220000000000003E0FC000000000000284000
  0
ACAD_PROXY_OBJECT
  5
66
102
{ACAD_REACTORS
330
47
102
}
330
47
100
AcDbProxyObject
 90
      499
 91
      503
 93
      225
310
90A3322203D2031272D302200000000000002100000000000000284000
  0
ACAD_PROXY_OBJECT
  5
67
102
{ACAD_REACTORS
330
47
102
}
330
47
100
AcDbProxyObject
 90
      499
 91
      503
 93
      225
310
90A3622203D2031272D302200000000000006100000000000000284000
  0
ACAD_PROXY_OBJECT
  5
68
102
{ACAD_REACTORS
330
47
102
}
330
47
100
AcDbProxyObject
 90
      499
 91
      503
 93
      249
310
90D31272D3022203D2031272D30220000000000000A100000000000000284000
  0
ACAD_PROXY_OBJECT
  5
2F
102
{ACAD_REACTORS
330
2A
102
}
330
2A
100
AcDbProxyObject
 90
      499
 91
      501
 93
      436
310
42CC9915DA5C99599C985B595049028333333333333E33F0000000000000F90107901411070040501600405405064090741402480A0340
1001
ACAD
1000
AcDbSavedByObjectVersion
1070
     0
  0
ACAD_PROXY_OBJECT
  5
32
102
{ACAD_REACTORS
330
2A
102
}
330
2A
100
AcDbProxyObject
 90
      499
 91
      501
 93
      388
310
4150985CDA58D07406404333333333333E33F0000000000000F90107A41107004050150841D405064090741402480A0350
1001
ACAD
1000
AcDbSavedByObjectVersion
1070
     0
  0
ACAD_PROXY_OBJECT
  5
36
102
{ACAD_REACTORS
330
2A
102
}
330
2A
100
AcDbProxyObject
 90
      499
 91
      501
 93
      428
310
42109C9A59DA1D195B90C409028333333333333E33F0000000000000F9010790141107004050150841D405064090741402480A029950
1001
ACAD
1000
AcDbSavedByObjectVersion
1070
     0
  0
ACAD_PROXY_OBJECT
  5
3A
102
{ACAD_REACTORS
330
2A
102
}
330
2A
100
AcDbProxyObject
 90
      499
 91
      501
 93
      452
310
42D0DBDB1BDC90DA185B99D95104090240C333333333333E33F0000000000000F90108901411070040501508421405064090741402480A0350
1001
ACAD
1000
AcDbSavedByObjectVersion
1070
     0
  0
ACAD_PROXY_OBJECT
  5
34
102
{ACAD_REACTORS
330
2A
102
}
330
2A
100
AcDbProxyObject
 90
      499
 91
      501
 93
      500
310
4290DBDB98D95C1D1D585B10940D028333333333333E33F0000000000000F90107902409070040501000000000018199010841D405064090740C02480A0340
1001
ACAD
1000
AcDbSavedByObjectVersion
1070
     0
  0
ACAD_PROXY_OBJECT
  5
35
102
{ACAD_REACTORS
330
2A
102
}
330
2A
100
AcDbProxyObject
 90
      499
 91
      501
 93
      412
310
40D11A5B50B409028333333333333E33F0000000000000F9010790141107004050150841D405064090741402480A02677FFFFFD0
1001
ACAD
1000
AcDbSavedByObjectVersion
1070
     0
  0
ACAD_PROXY_OBJECT
  5
3D
102
{ACAD_REACTORS
330
2A
102
}
330
2A
100
AcDbProxyObject
 90
      499
 91
      501
 93
      452
310
43115919D950DBDB1BDC93D999916409028333333333333E33F0000000000000F9010790141107004050150841D405064090741402480A0350
1001
ACAD
1000
AcDbSavedByObjectVersion
1070
     0
  0
ACAD_PROXY_OBJECT
  5
39
102
{ACAD_REACTORS
330
2A
102
}
330
2A
100
AcDbProxyObject
 90
      499
 91
      501
 93
      444
310
42D19858D95C185D1D195C9B90F409028333333333333E33F0000000000000F9010790141107004050150841D405064090741402480A0350
1001
ACAD
1000
AcDbSavedByObjectVersion
1070
     0
  0
ACAD_PROXY_OBJECT
  5
2B
102
{ACAD_REACTORS
330
2A
102
}
330
2A
100
AcDbProxyObject
 90
      499
 91
      501
 93
      380
310
41119B185D240901404333333333333E33F0000000000000F9010740A907004050150841D405064090741402480A1B50
1001
ACAD
1000
AcDbSavedByObjectVersion
1070
     0
  0
ACAD_PROXY_OBJECT
  5
2C
102
{ACAD_REACTORS
330
2A
102
}
330
2A
100
AcDbProxyObject
 90
      499
 91
      501
 93
      468
310
43519B185D15DA5D1A115919D95CD0140901404333333333333E33F0000000000000F90107409019070040501600405405064090741402480A1B50
1001
ACAD
1000
AcDbSavedByObjectVersion
1070
     0
  0
ACAD_PROXY_OBJECT
  5
2D
102
{ACAD_REACTORS
330
2A
102
}
330
2A
100
AcDbProxyObject
 90
      499
 91
      501
 93
      404
310
41D1DBDD5C985D5910240902404333333333333E33F0000000000000F9010740A9070040501641D405064090741402480A1B50
1001
ACAD
1000
AcDbSavedByObjectVersion
1070
     0
  0
ACAD_PROXY_OBJECT
  5
2E
102
{ACAD_REACTORS
330
2A
102
}
330
2A
100
AcDbProxyObject
 90
      499
 91
      501
 93
      492
310
4411DBDD5C985D5915DA5D1A115919D95CD0340902404333333333333E33F0000000000000F90107409019070040501600405405064090741402480A1B50
1001
ACAD
1000
AcDbSavedByObjectVersion
1070
     0
  0
ACAD_PROXY_OBJECT
  5
31
102
{ACAD_REACTORS
330
2A
102
}
330
2A
100
AcDbProxyObject
 90
      499
 91
      501
 93
      476
310
41921A5919195B90640502408333333333333E33F0000000000000F901079024090700405020000000000001110200405405064090740C02480A0340
1001
ACAD
1000
AcDbSavedByObjectVersion
1070
     0
  0
ACAD_PROXY_OBJECT
  5
3B
102
{ACAD_REACTORS
330
2A
102
}
330
2A
100
AcDbProxyObject
 90
      499
 91
      501
 93
      428
310
42529A5D1D195C93D999914409028333333333333E33F0000000000000F9010790141107004050150A41D405064090741402480A0350
1001
ACAD
1000
AcDbSavedByObjectVersion
1070
     0
  0
ACAD_PROXY_OBJECT
  5
38
102
{ACAD_REACTORS
330
2A
102
}
330
2A
100
AcDbProxyObject
 90
      499
 91
      501
 93
      444
310
42D31A5B995C185D1D195C9B90E409028333333333333E33F0000000000000F9010790141107004050750841D405064090741402483A0350
1001
ACAD
1000
AcDbSavedByObjectVersion
1070
     0
  0
ACAD_PROXY_OBJECT
  5
3C
102
{ACAD_REACTORS
330
2A
102
}
330
2A
100
AcDbProxyObject
 90
      499
 91
      501
 93
      444
310
42D3DD995C9A185B99D3D999915409028333333333333E33F0000000000000F9010790141107004050150941D405064090741402480A0350
1001
ACAD
1000
AcDbSavedByObjectVersion
1070
     0
  0
ACAD_PROXY_OBJECT
  5
33
102
{ACAD_REACTORS
330
2A
102
}
330
2A
100
AcDbProxyObject
 90
      499
 91
      501
 93
      428
310
425499585B1A5CDD1A58D08409038333333333333E33F0000000000000F9010740A907004050150800405405064090740C02480A1B40
1001
ACAD
1000
AcDbSavedByObjectVersion
1070
     0
  0
ACAD_PROXY_OBJECT
  5
42
102
{ACAD_REACTORS
330
2A
102
}
330
2A
100
AcDbProxyObject
 90
      499
 91
      501
 93
      420
310
4194DA1859195911B40902404333333333333E33F0000000000000F9010740A41107004050150800405405064090840C02480A0B40
1001
ACAD
1000
AcDbSavedByObjectVersion
1070
     0
  0
ACAD_PROXY_OBJECT
  5
41
102
{ACAD_REACTORS
330
2A
102
}
330
2A
100
AcDbProxyObject
 90
      499
 91
      501
 93
      516
310
4454DA18591959081DDA5D1A08195919D95CD1A40902404333333333333E33F0000000000000F901074090142907004050250800405405064090740C02480A0B40
1001
ACAD
1000
AcDbSavedByObjectVersion
1070
     0
  0
ACAD_PROXY_OBJECT
  5
3E
102
{ACAD_REACTORS
330
2A
102
}
330
2A
100
AcDbProxyObject
 90
      499
 91
      501
 93
      532
310
4394DA1859195CC81BD98811DC985E5174090240C333333333333E33F0000000000000F901079024090741D01000000000000111010841D405064090740C02480A0340
1001
ACAD
1000
AcDbSavedByObjectVersion
1070
     0
  0
ACAD_PROXY_OBJECT
  5
3F
102
{ACAD_REACTORS
330
2A
102
}
330
2A
100
AcDbProxyObject
 90
      499
 91
      501
 93
      476
310
41D4DAD95D18DA1E51840502408333333333333E33F0000000000000F901079024090741D01000000000000111010B41D405064090741802480A0340
1001
ACAD
1000
AcDbSavedByObjectVersion
1070
     0
  0
ACAD_PROXY_OBJECT
  5
37
102
{ACAD_REACTORS
330
2A
102
}
330
2A
100
AcDbProxyObject
 90
      499
 91
      501
 93
      412
310
41D51A1A58DAD95B90D409028333333333333E33F0000000000000F9010790141107004050150C41D405064090741402480A0350
1001
ACAD
1000
AcDbSavedByObjectVersion
1070
     0
  0
ACAD_PROXY_OBJECT
  5
30
102
{ACAD_REACTORS
330
2A
102
}
330
2A
100
AcDbProxyObject
 90
      499
 91
      501
 93
      420
310
4255DA5C99599C985B595059028333333333333E33F0000000000000F90107901411070040501600405405064090740C02480A0340
1001
ACAD
1000
AcDbSavedByObjectVersion
1070
     0
  0
ACAD_PROXY_OBJECT
  5
40
102
{ACAD_REACTORS
330
2A
102
}
330
2A
100
AcDbProxyObject
 90
      499
 91
      501
 93
      404
310
41560B54985E51940902404000000000000E03F0000000000000F9010740501907004050150841D405064090740C02480A1B40
1001
ACAD
1000
AcDbSavedByObjectVersion
1070
     0
  0
XRECORD
  5
10E
102
{ACAD_REACTORS
330
104
102
}
330
104
100
AcDbXrecord
340
0
  0
XRECORD
  5
10D
102
{ACAD_REACTORS
330
104
102
}
330
104
100
AcDbXrecord
 90
        0
  0
XRECORD
  5
124
102
{ACAD_REACTORS
330
104
102
}
330
104
100
AcDbXrecord
1000
DSTYLE
1002
{
1070
   340
340
11
1002
}
  0
XRECORD
  5
10F
102
{ACAD_REACTORS
330
104
102
}
330
104
100
AcDbXrecord
  1
{15487A65-F4C7-4298-BA74-99664D5A8156}
  0
XRECORD
  5
107
102
{ACAD_REACTORS
330
104
102
}
330
104
100
AcDbXrecord
  1

  0
XRECORD
  5
10C
102
{ACAD_REACTORS
330
104
102
}
330
104
100
AcDbXrecord
 90
        4
  0
XRECORD
  5
109
102
{ACAD_REACTORS
330
104
102
}
330
104
100
AcDbXrecord
340
1A
  0
XRECORD
  5
10B
102
{ACAD_REACTORS
330
104
102
}
330
104
100
AcDbXrecord
 90
    10781
  0
XRECORD
  5
10A
102
{ACAD_REACTORS
330
104
102
}
330
104
100
AcDbXrecord
340
19
  0
XRECORD
  5
111
102
{ACAD_REACTORS
330
104
102
}
330
104
100
AcDbXrecord
 40
0.0
  0
XRECORD
  5
114
102
{ACAD_REACTORS
330
104
102
}
330
104
100
AcDbXrecord
340
0
  0
XRECORD
  5
11A
102
{ACAD_REACTORS
330
104
102
}
330
104
100
AcDbXrecord
 10
0.0
 20
0.0
 30
0.0
  0
XRECORD
  5
116
102
{ACAD_REACTORS
330
104
102
}
330
104
100
AcDbXrecord
 10
0.0
 20
0.0
 30
0.0
  0
XRECORD
  5
119
102
{ACAD_REACTORS
330
104
102
}
330
104
100
AcDbXrecord
 10
0.0
 20
0.0
 30
0.0
  0
XRECORD
  5
117
102
{ACAD_REACTORS
330
104
102
}
330
104
100
AcDbXrecord
 10
0.0
 20
0.0
 30
0.0
  0
XRECORD
  5
118
102
{ACAD_REACTORS
330
104
102
}
330
104
100
AcDbXrecord
 10
0.0
 20
0.0
 30
0.0
  0
XRECORD
  5
115
102
{ACAD_REACTORS
330
104
102
}
330
104
100
AcDbXrecord
 10
0.0
 20
0.0
 30
0.0
  0
XRECORD
  5
112
102
{ACAD_REACTORS
330
104
102
}
330
104
100
AcDbXrecord
340
0
  0
XRECORD
  5
113
102
{ACAD_REACTORS
330
104
102
}
330
104
100
AcDbXrecord
 70
     0
  0
XRECORD
  5
108
102
{ACAD_REACTORS
330
104
102
}
330
104
100
AcDbXrecord
  1

  0
XRECORD
  5
105
102
{ACAD_REACTORS
330
104
102
}
330
104
100
AcDbXrecord
 90
        1
  0
XRECORD
  5
106
102
{ACAD_REACTORS
330
104
102
}
330
104
100
AcDbXrecord
 90
       70
  0
XRECORD
  5
11D
102
{ACAD_REACTORS
330
104
102
}
330
104
100
AcDbXrecord
340
0
  0
XRECORD
  5
123
102
{ACAD_REACTORS
330
104
102
}
330
104
100
AcDbXrecord
 10
0.0
 20
0.0
 30
0.0
  0
XRECORD
  5
11F
102
{ACAD_REACTORS
330
104
102
}
330
104
100
AcDbXrecord
 10
0.0
 20
0.0
 30
0.0
  0
XRECORD
  5
122
102
{ACAD_REACTORS
330
104
102
}
330
104
100
AcDbXrecord
 10
0.0
 20
0.0
 30
0.0
  0
XRECORD
  5
120
102
{ACAD_REACTORS
330
104
102
}
330
104
100
AcDbXrecord
 10
0.0
 20
0.0
 30
0.0
  0
XRECORD
  5
121
102
{ACAD_REACTORS
330
104
102
}
330
104
100
AcDbXrecord
 10
0.0
 20
0.0
 30
0.0
  0
XRECORD
  5
11E
102
{ACAD_REACTORS
330
104
102
}
330
104
100
AcDbXrecord
 10
0.0
 20
0.0
 30
0.0
  0
XRECORD
  5
11B
102
{ACAD_REACTORS
330
104
102
}
330
104
100
AcDbXrecord
340
0
  0
XRECORD
  5
11C
102
{ACAD_REACTORS
330
104
102
}
330
104
100
AcDbXrecord
 70
     0
  0
XRECORD
  5
110
102
{ACAD_REACTORS
330
104
102
}
330
104
100
AcDbXrecord
  1
{FAEB1C32-E019-11D5-929B-00C0DF256EC4}
  0
DICTIONARYVAR
  5
12E
102
{ACAD_REACTORS
330
125
102
}
330
125
100
DictionaryVariables
280
     0
  1
1:1
  0
DICTIONARYVAR
  5
127
102
{ACAD_REACTORS
330
125
102
}
330
125
100
DictionaryVariables
280
     0
  1
Standard
  0
DICTIONARYVAR
  5
126
102
{ACAD_REACTORS
330
125
102
}
330
125
100
DictionaryVariables
280
     0
  1
Standard
  0
DICTIONARYVAR
  5
12A
102
{ACAD_REACTORS
330
125
102
}
330
125
100
DictionaryVariables
280
     0
  1
2
  0
DICTIONARYVAR
  5
12B
102
{ACAD_REACTORS
330
125
102
}
330
125
100
DictionaryVariables
280
     0
  1
1
  0
DICTIONARYVAR
  5
12F
102
{ACAD_REACTORS
330
125
102
}
330
125
100
DictionaryVariables
280
     0
  1
1
  0
DICTIONARY
  5
132
330
45
100
AcDbDictionary
280
     1
  3
ACAD_XREC_ROUNDTRIP
360
133
  0
DICTIONARY
  5
130
330
44
100
AcDbDictionary
280
     1
  3
ACAD_XREC_ROUNDTRIP
360
131
  0
DICTIONARY
  5
134
330
46
100
AcDbDictionary
280
     1
  3
ACAD_XREC_ROUNDTRIP
360
135
  0
XRECORD
  5
133
102
{ACAD_REACTORS
330
132
102
}
330
132
100
AcDbXrecord
102
MATERIAL
148
0.0
149
0.0
149
0.0
 93
        0
 94
      127
282
     0
 72
     1
 77
     1
171
     1
175
     1
179
     1
273
     0
  0
XRECORD
  5
131
102
{ACAD_REACTORS
330
130
102
}
330
130
100
AcDbXrecord
102
MATERIAL
148
0.0
149
0.0
149
0.0
 93
        0
 94
      127
282
     0
 72
     1
 77
     1
171
     1
175
     1
179
     1
273
     0
  0
XRECORD
  5
135
102
{ACAD_REACTORS
330
134
102
}
330
134
100
AcDbXrecord
102
MATERIAL
148
0.0
149
0.0
149
0.0
 93
        0
 94
      127
282
     0
 72
     1
 77
     1
171
     1
175
     1
179
     1
273
     0
  0
ENDSEC
  0
EOF
